  0
SECTION
  2
HEADER
  9
$ACADVER
  1
AC1015
  9
$ACADMAINTVER
 70
     6
  9
$DWGCODEPAGE
  3
ANSI_1252
  9
$INSBASE
 10
0.0
 20
0.0
 30
0.0
  9
$EXTMIN
 10
-1.4719884186
 20
-4.0263394665
 30
0.0
  9
$EXTMAX
 10
1.429940692
 20
3.4668858529
 30
0.0
  9
$LIMMIN
 10
0.0
 20
0.0
  9
$LIMMAX
 10
12.0
 20
9.0
  9
$ORTHOMODE
 70
     0
  9
$REGENMODE
 70
     1
  9
$FILLMODE
 70
     1
  9
$QTEXTMODE
 70
     0
  9
$MIRRTEXT
 70
     1
  9
$LTSCALE
 40
1.0
  9
$ATTMODE
 70
     1
  9
$TEXTSIZE
 40
0.125
  9
$TRACEWID
 40
0.05
  9
$TEXTSTYLE
  7
Standard
  9
$CLAYER
  8
0
  9
$CELTYPE
  6
ByLayer
  9
$CECOLOR
 62
   256
  9
$CELTSCALE
 40
1.0
  9
$DISPSILH
 70
     0
  9
$DIMSCALE
 40
1.0
  9
$DIMASZ
 40
0.13
  9
$DIMEXO
 40
0.05
  9
$DIMDLI
 40
0.38
  9
$DIMRND
 40
0.0
  9
$DIMDLE
 40
0.0
  9
$DIMEXE
 40
0.125
  9
$DIMTP
 40
0.0
  9
$DIMTM
 40
0.0
  9
$DIMTXT
 40
0.125
  9
$DIMCEN
 40
0.09
  9
$DIMTSZ
 40
0.0
  9
$DIMTOL
 70
     0
  9
$DIMLIM
 70
     0
  9
$DIMTIH
 70
     1
  9
$DIMTOH
 70
     1
  9
$DIMSE1
 70
     0
  9
$DIMSE2
 70
     0
  9
$DIMTAD
 70
     0
  9
$DIMZIN
 70
     1
  9
$DIMBLK
  1

  9
$DIMASO
 70
     1
  9
$DIMSHO
 70
     1
  9
$DIMPOST
  1

  9
$DIMAPOST
  1

  9
$DIMALT
 70
     0
  9
$DIMALTD
 70
     2
  9
$DIMALTF
 40
25.4
  9
$DIMLFAC
 40
1.0
  9
$DIMTOFL
 70
     0
  9
$DIMTVP
 40
0.0
  9
$DIMTIX
 70
     0
  9
$DIMSOXD
 70
     0
  9
$DIMSAH
 70
     0
  9
$DIMBLK1
  1

  9
$DIMBLK2
  1

  9
$DIMSTYLE
  2
Standard
  9
$DIMCLRD
 70
     0
  9
$DIMCLRE
 70
     0
  9
$DIMCLRT
 70
     0
  9
$DIMTFAC
 40
1.0
  9
$DIMGAP
 40
0.06
  9
$DIMJUST
 70
     0
  9
$DIMSD1
 70
     0
  9
$DIMSD2
 70
     0
  9
$DIMTOLJ
 70
     1
  9
$DIMTZIN
 70
     1
  9
$DIMALTZ
 70
     0
  9
$DIMALTTZ
 70
     0
  9
$DIMUPT
 70
     0
  9
$DIMDEC
 70
     2
  9
$DIMTDEC
 70
     2
  9
$DIMALTU
 70
     2
  9
$DIMALTTD
 70
     2
  9
$DIMTXSTY
  7
Standard
  9
$DIMAUNIT
 70
     0
  9
$DIMADEC
 70
     2
  9
$DIMALTRND
 40
0.0
  9
$DIMAZIN
 70
     0
  9
$DIMDSEP
 70
    46
  9
$DIMATFIT
 70
     3
  9
$DIMFRAC
 70
     0
  9
$DIMLDRBLK
  1

  9
$DIMLUNIT
 70
     2
  9
$DIMLWD
 70
    -2
  9
$DIMLWE
 70
    -2
  9
$DIMTMOVE
 70
     0
  9
$LUNITS
 70
     2
  9
$LUPREC
 70
     2
  9
$SKETCHINC
 40
0.1
  9
$FILLETRAD
 40
0.5
  9
$AUNITS
 70
     0
  9
$AUPREC
 70
     2
  9
$MENU
  1
.
  9
$ELEVATION
 40
0.0
  9
$PELEVATION
 40
0.0
  9
$THICKNESS
 40
0.0
  9
$LIMCHECK
 70
     0
  9
$CHAMFERA
 40
0.0
  9
$CHAMFERB
 40
0.0
  9
$CHAMFERC
 40
0.0
  9
$CHAMFERD
 40
0.0
  9
$SKPOLY
 70
     0
  9
$TDCREATE
 40
2459023.985389861
  9
$TDUCREATE
 40
2459023.756223194
  9
$TDUPDATE
 40
2459023.985405231
  9
$TDUUPDATE
 40
2459023.756238565
  9
$TDINDWG
 40
0.0000000116
  9
$TDUSRTIMER
 40
0.0000000116
  9
$USRTIMER
 70
     1
  9
$ANGBASE
 50
0.0
  9
$ANGDIR
 70
     0
  9
$PDMODE
 70
     0
  9
$PDSIZE
 40
-1.0
  9
$PLINEWID
 40
0.0
  9
$SPLFRAME
 70
     0
  9
$SPLINETYPE
 70
     6
  9
$SPLINESEGS
 70
     8
  9
$HANDSEED
  5
1B2
  9
$SURFTAB1
 70
     6
  9
$SURFTAB2
 70
     6
  9
$SURFTYPE
 70
     6
  9
$SURFU
 70
     6
  9
$SURFV
 70
     6
  9
$UCSBASE
  2

  9
$UCSNAME
  2

  9
$UCSORG
 10
0.0
 20
0.0
 30
0.0
  9
$UCSXDIR
 10
1.0
 20
0.0
 30
0.0
  9
$UCSYDIR
 10
0.0
 20
1.0
 30
0.0
  9
$UCSORTHOREF
  2

  9
$UCSORTHOVIEW
 70
     0
  9
$UCSORGTOP
 10
0.0
 20
0.0
 30
0.0
  9
$UCSORGBOTTOM
 10
0.0
 20
0.0
 30
0.0
  9
$UCSORGLEFT
 10
0.0
 20
0.0
 30
0.0
  9
$UCSORGRIGHT
 10
0.0
 20
0.0
 30
0.0
  9
$UCSORGFRONT
 10
0.0
 20
0.0
 30
0.0
  9
$UCSORGBACK
 10
0.0
 20
0.0
 30
0.0
  9
$PUCSBASE
  2

  9
$PUCSNAME
  2

  9
$PUCSORG
 10
0.0
 20
0.0
 30
0.0
  9
$PUCSXDIR
 10
1.0
 20
0.0
 30
0.0
  9
$PUCSYDIR
 10
0.0
 20
1.0
 30
0.0
  9
$PUCSORTHOREF
  2

  9
$PUCSORTHOVIEW
 70
     0
  9
$PUCSORGTOP
 10
0.0
 20
0.0
 30
0.0
  9
$PUCSORGBOTTOM
 10
0.0
 20
0.0
 30
0.0
  9
$PUCSORGLEFT
 10
0.0
 20
0.0
 30
0.0
  9
$PUCSORGRIGHT
 10
0.0
 20
0.0
 30
0.0
  9
$PUCSORGFRONT
 10
0.0
 20
0.0
 30
0.0
  9
$PUCSORGBACK
 10
0.0
 20
0.0
 30
0.0
  9
$USERI1
 70
     0
  9
$USERI2
 70
     0
  9
$USERI3
 70
     0
  9
$USERI4
 70
     0
  9
$USERI5
 70
     0
  9
$USERR1
 40
0.0
  9
$USERR2
 40
0.0
  9
$USERR3
 40
0.0
  9
$USERR4
 40
0.0
  9
$USERR5
 40
0.0
  9
$WORLDVIEW
 70
     1
  9
$SHADEDGE
 70
     3
  9
$SHADEDIF
 70
    70
  9
$TILEMODE
 70
     1
  9
$MAXACTVP
 70
    64
  9
$PINSBASE
 10
0.0
 20
0.0
 30
0.0
  9
$PLIMCHECK
 70
     0
  9
$PEXTMIN
 10
1.0000000000E+20
 20
1.0000000000E+20
 30
1.0000000000E+20
  9
$PEXTMAX
 10
-1.0000000000E+20
 20
-1.0000000000E+20
 30
-1.0000000000E+20
  9
$PLIMMIN
 10
0.0
 20
0.0
  9
$PLIMMAX
 10
12.0
 20
9.0
  9
$UNITMODE
 70
     0
  9
$VISRETAIN
 70
     1
  9
$PLINEGEN
 70
     0
  9
$PSLTSCALE
 70
     1
  9
$TREEDEPTH
 70
  3020
  9
$CMLSTYLE
  2
Standard
  9
$CMLJUST
 70
     0
  9
$CMLSCALE
 40
1.0
  9
$PROXYGRAPHICS
 70
     1
  9
$MEASUREMENT
 70
     0
  9
$CELWEIGHT
370
    -1
  9
$ENDCAPS
280
     0
  9
$JOINSTYLE
280
     0
  9
$LWDISPLAY
290
     1
  9
$INSUNITS
 70
     1
  9
$HYPERLINKBASE
  1

  9
$STYLESHEET
  1

  9
$XEDIT
290
     1
  9
$CEPSNTYPE
380
     0
  9
$PSTYLEMODE
290
     1
  9
$FINGERPRINTGUID
  2
{DA762684-FC5C-4011-866E-1C182CD41D38}
  9
$VERSIONGUID
  2
{FAEB1C32-E019-11D5-929B-00C0DF256EC4}
  9
$EXTNAMES
290
     1
  9
$PSVPSCALE
 40
0.0
  9
$OLESTARTUP
290
     0
  0
ENDSEC
  0
SECTION
  2
CLASSES
  0
CLASS
  1
ACDBDICTIONARYWDFLT
  2
AcDbDictionaryWithDefault
  3
ObjectDBX Classes
 90
        0
280
     0
281
     0
  0
CLASS
  1
VISUALSTYLE
  2
AcDbVisualStyle
  3
ObjectDBX Classes
 90
     4095
280
     0
281
     0
  0
CLASS
  1
MATERIAL
  2
AcDbMaterial
  3
ObjectDBX Classes
 90
     1153
280
     0
281
     0
  0
CLASS
  1
SCALE
  2
AcDbScale
  3
ObjectDBX Classes
 90
     1153
280
     0
281
     0
  0
CLASS
  1
TABLESTYLE
  2
AcDbTableStyle
  3
ObjectDBX Classes
 90
     4095
280
     0
281
     0
  0
CLASS
  1
MLEADERSTYLE
  2
AcDbMLeaderStyle
  3
ACDB_MLEADERSTYLE_CLASS
 90
     4095
280
     0
281
     0
  0
CLASS
  1
SUN
  2
AcDbSun
  3
SCENEOE
 90
     1153
280
     0
281
     0
  0
CLASS
  1
ACDBPLACEHOLDER
  2
AcDbPlaceHolder
  3
ObjectDBX Classes
 90
        0
280
     0
281
     0
  0
CLASS
  1
LAYOUT
  2
AcDbLayout
  3
ObjectDBX Classes
 90
        0
280
     0
281
     0
  0
ENDSEC
  0
SECTION
  2
TABLES
  0
TABLE
  2
VPORT
  5
8
330
0
100
AcDbSymbolTable
 70
     1
  0
VPORT
  5
29
330
8
100
AcDbSymbolTableRecord
100
AcDbViewportTableRecord
  2
*Active
 70
     0
 10
0.0
 20
0.0
 11
1.0
 21
1.0
 12
-0.0210238633
 22
-0.2797268068
 13
0.0
 23
0.0
 14
0.5
 24
0.5
 15
0.5
 25
0.5
 16
0.0
 26
0.0
 36
1.0
 17
0.0
 27
0.0
 37
0.0
 40
7.6430898258
 41
0.3872737022
 42
50.0
 43
0.0
 44
0.0
 50
0.0
 51
0.0
 71
     0
 72
   100
 73
     1
 74
     3
 75
     0
 76
     0
 77
     0
 78
     0
281
     0
 65
     1
110
0.0
120
0.0
130
0.0
111
1.0
121
0.0
131
0.0
112
0.0
122
1.0
132
0.0
 79
     0
146
0.0
  0
ENDTAB
  0
TABLE
  2
LTYPE
  5
5
330
0
100
AcDbSymbolTable
 70
     6
  0
LTYPE
  5
14
330
5
100
AcDbSymbolTableRecord
100
AcDbLinetypeTableRecord
  2
ByBlock
 70
     0
  3

 72
    65
 73
     0
 40
0.0
  0
LTYPE
  5
15
330
5
100
AcDbSymbolTableRecord
100
AcDbLinetypeTableRecord
  2
ByLayer
 70
     0
  3

 72
    65
 73
     0
 40
0.0
  0
LTYPE
  5
16
330
5
100
AcDbSymbolTableRecord
100
AcDbLinetypeTableRecord
  2
Continuous
 70
     0
  3
Solid line
 72
    65
 73
     0
 40
0.0
  0
LTYPE
  5
6E
330
5
100
AcDbSymbolTableRecord
100
AcDbLinetypeTableRecord
  2
HIDDEN
 70
     0
  3
Hidden __ __ __ __ __ __ __ __ __ __ __ __ __ __
 72
    65
 73
     2
 40
0.075
 49
0.05
 74
     0
 49
-0.025
 74
     0
  0
LTYPE
  5
6F
330
5
100
AcDbSymbolTableRecord
100
AcDbLinetypeTableRecord
  2
PHANTOM
 70
     0
  3
Phantom ______  __  __  ______  __  __  ______
 72
    65
 73
     6
 40
0.5
 49
0.25
 74
     0
 49
-0.05
 74
     0
 49
0.05
 74
     0
 49
-0.05
 74
     0
 49
0.05
 74
     0
 49
-0.05
 74
     0
  0
LTYPE
  5
70
330
5
100
AcDbSymbolTableRecord
100
AcDbLinetypeTableRecord
  2
CENTER
 70
     0
  3
Center ____ _ ____ _ ____ _ ____ _ ____ _ ____
 72
    65
 73
     4
 40
0.4
 49
0.25
 74
     0
 49
-0.05
 74
     0
 49
0.05
 74
     0
 49
-0.05
 74
     0
  0
LTYPE
  5
71
330
5
100
AcDbSymbolTableRecord
100
AcDbLinetypeTableRecord
  2
CENTERX2
 70
     0
  3
Center (2x) ________  __  ________  __  _____
 72
    65
 73
     4
 40
0.8
 49
0.5
 74
     0
 49
-0.1
 74
     0
 49
0.1
 74
     0
 49
-0.1
 74
     0
  0
LTYPE
  5
72
330
5
100
AcDbSymbolTableRecord
100
AcDbLinetypeTableRecord
  2
DOT2
 70
     0
  3
Dot (.5x) ........................................
 72
    65
 73
     2
 40
0.025
 49
0.0
 74
     0
 49
-0.025
 74
     0
  0
ENDTAB
  0
TABLE
  2
LAYER
  5
2
330
0
100
AcDbSymbolTable
 70
     1
  0
LAYER
  5
10
330
2
100
AcDbSymbolTableRecord
100
AcDbLayerTableRecord
  2
0
 70
     0
 62
     7
  6
Continuous
370
    -3
390
F
  0
ENDTAB
  0
TABLE
  2
STYLE
  5
3
330
0
100
AcDbSymbolTable
 70
     1
  0
STYLE
  5
11
330
3
100
AcDbSymbolTableRecord
100
AcDbTextStyleTableRecord
  2
Standard
 70
     0
 40
0.0
 41
1.0
 50
0.0
 71
     0
 42
0.125
  3
txt
  4

  0
ENDTAB
  0
TABLE
  2
VIEW
  5
6
330
0
100
AcDbSymbolTable
 70
     0
  0
ENDTAB
  0
TABLE
  2
UCS
  5
7
330
0
100
AcDbSymbolTable
 70
     0
  0
ENDTAB
  0
TABLE
  2
APPID
  5
9
330
0
100
AcDbSymbolTable
 70
     1
  0
APPID
  5
12
330
9
100
AcDbSymbolTableRecord
100
AcDbRegAppTableRecord
  2
ACAD
 70
     0
  0
ENDTAB
  0
TABLE
  2
DIMSTYLE
  5
A
330
0
100
AcDbSymbolTable
 70
     1
100
AcDbDimStyleTable
  0
DIMSTYLE
105
27
330
A
100
AcDbSymbolTableRecord
100
AcDbDimStyleTableRecord
  2
Standard
 70
     0
178
     0
340
11
  0
ENDTAB
  0
TABLE
  2
BLOCK_RECORD
  5
1
330
0
100
AcDbSymbolTable
 70
     1
  0
BLOCK_RECORD
  5
1F
330
1
100
AcDbSymbolTableRecord
100
AcDbBlockTableRecord
  2
*Model_Space
340
22
  0
BLOCK_RECORD
  5
1B
330
1
100
AcDbSymbolTableRecord
100
AcDbBlockTableRecord
  2
*Paper_Space
340
1E
  0
BLOCK_RECORD
  5
23
330
1
100
AcDbSymbolTableRecord
100
AcDbBlockTableRecord
  2
*Paper_Space0
340
26
  0
ENDTAB
  0
ENDSEC
  0
SECTION
  2
BLOCKS
  0
BLOCK
  5
20
330
1F
100
AcDbEntity
  8
0
100
AcDbBlockBegin
  2
*Model_Space
 70
     0
 10
0.0
 20
0.0
 30
0.0
  3
*Model_Space
  1

  0
ENDBLK
  5
21
330
1F
100
AcDbEntity
  8
0
100
AcDbBlockEnd
  0
BLOCK
  5
1C
330
1B
100
AcDbEntity
 67
     1
  8
0
100
AcDbBlockBegin
  2
*Paper_Space
 70
     0
 10
0.0
 20
0.0
 30
0.0
  3
*Paper_Space
  1

  0
ENDBLK
  5
1D
330
1B
100
AcDbEntity
 67
     1
  8
0
100
AcDbBlockEnd
  0
BLOCK
  5
24
330
23
100
AcDbEntity
  8
0
100
AcDbBlockBegin
  2
*Paper_Space0
 70
     0
 10
0.0
 20
0.0
 30
0.0
  3
*Paper_Space0
  1

  0
ENDBLK
  5
25
330
23
100
AcDbEntity
  8
0
100
AcDbBlockEnd
  0
ENDSEC
  0
SECTION
  2
ENTITIES
  0
SPLINE
  5
73
330
1F
100
AcDbEntity
  8
0
  6
Continuous
 62
     7
370
    25
100
AcDbSpline
210
0.0
220
0.0
230
1.0
 70
     8
 71
     3
 72
    12
 73
     8
 74
     0
 42
0.000000001
 43
0.00000001
 40
0.0
 40
0.0
 40
0.0
 40
0.0
 40
0.0574290859832182
 40
0.3177597115928806
 40
0.5117472867392079
 40
0.7003009993888836
 40
1.0
 40
1.0
 40
1.0
 40
1.0
 10
-0.6164377530473556
 20
2.817086039671932
 30
0.0
 10
-0.6164237940165898
 20
2.818412941808716
 30
0.0
 10
-0.6163465575864021
 20
2.825754797126063
 30
0.0
 10
-0.6150289133292449
 20
2.839184129932259
 30
0.0
 10
-0.6126807340613918
 20
2.856335152617387
 30
0.0
 10
-0.6092869753532311
 20
2.875107110699509
 30
0.0
 10
-0.6058672417198074
 20
2.888642806975191
 30
0.0
 10
-0.6037681427809637
 20
2.89695128030513
 30
0.0
  0
SPLINE
  5
74
330
1F
100
AcDbEntity
  8
0
  6
Continuous
 62
     7
370
    25
100
AcDbSpline
210
0.0
220
0.0
230
1.0
 70
     8
 71
     3
 72
    16
 73
    12
 74
     0
 42
0.000000001
 43
0.00000001
 40
0.0
 40
0.0
 40
0.0
 40
0.0
 40
0.1796240773827854
 40
0.2523516506962307
 40
0.370978202127286
 40
0.4906573208782211
 40
0.6146926380734961
 40
0.7385975696991296
 40
0.8601656190746986
 40
0.9778338642971373
 40
1.0
 40
1.0
 40
1.0
 40
1.0
 10
-0.6037681427809637
 20
2.89695128030513
 30
0.0
 10
-0.6011504987370965
 20
2.905910963195056
 30
0.0
 10
-0.5974730029078635
 20
2.918498311171628
 30
0.0
 10
-0.591005340517873
 20
2.936138655126456
 30
0.0
 10
-0.5852009628875475
 20
2.950363205321222
 30
0.0
 10
-0.5779507190958314
 20
2.965768365649276
 30
0.0
 10
-0.5703070473752365
 20
2.979858196811253
 30
0.0
 10
-0.5625284152279532
 20
2.992168196528938
 30
0.0
 10
-0.5553426432038205
 20
3.001789779521769
 30
0.0
 10
-0.5503177494973905
 20
3.007533914473591
 30
0.0
 10
-0.5484584775985453
 20
3.009208351121901
 30
0.0
 10
-0.5481637512734054
 20
3.009473777905546
 30
0.0
  0
SPLINE
  5
75
330
1F
100
AcDbEntity
  8
0
  6
Continuous
 62
     7
370
    25
100
AcDbSpline
210
0.0
220
0.0
230
1.0
 70
     8
 71
     3
 72
    39
 73
    35
 74
     0
 42
0.000000001
 43
0.00000001
 40
0.0
 40
0.0
 40
0.0
 40
0.0
 40
0.0878570240670994
 40
0.1758400236415978
 40
0.2576317822622773
 40
0.3331391311485659
 40
0.4022894940433002
 40
0.4650288388199951
 40
0.5213192578570435
 40
0.5711363407543235
 40
0.6002703335747646
 40
0.6252715564963169
 40
0.6461292202690616
 40
0.6590539539168551
 40
0.6696492829542728
 40
0.6779159231575529
 40
0.6840922893786455
 40
0.6888907469602846
 40
0.6961178371077932
 40
0.7115103778628404
 40
0.7323612882642678
 40
0.7586636959001787
 40
0.7904070432626142
 40
0.8231785846535893
 40
0.860221558132419
 40
0.9015153032623378
 40
0.9352590652571737
 40
0.9713642888058551
 40
0.9806703017411178
 40
0.9887009599086442
 40
0.9915029348762239
 40
0.9935434621561067
 40
0.9949391782676691
 40
1.0
 40
1.0
 40
1.0
 40
1.0
 10
-1.471986852895724
 20
2.890894456147632
 30
0.0
 10
-1.471226311124154
 20
2.810104917761214
 30
0.0
 10
-1.469704137063364
 20
2.648409999333157
 30
0.0
 10
-1.46791737928442
 20
2.411263604056544
 30
0.0
 10
-1.466461497271716
 20
2.185403582263107
 30
0.0
 10
-1.465342508594868
 20
1.976844303136706
 30
0.0
 10
-1.464488970510395
 20
1.785844830361805
 30
0.0
 10
-1.463851735837131
 20
1.612590703333519
 30
0.0
 10
-1.463387264277435
 20
1.457206919237512
 30
0.0
 10
-1.46309045244375
 20
1.332836017019577
 30
0.0
 10
-1.462904690872249
 20
1.23729479225661
 30
0.0
 10
-1.462791425244572
 20
1.168359841045473
 30
0.0
 10
-1.462716472280285
 20
1.114319977142138
 30
0.0
 10
-1.462667601476965
 20
1.073514354949613
 30
0.0
 10
-1.462636456361974
 20
1.04427563737538
 30
0.0
 10
-1.462614372428383
 20
1.021234235568084
 30
0.0
 10
-1.462598836595591
 20
1.003502255589075
 30
0.0
 10
-1.462585183128097
 20
0.9867130526331106
 30
0.0
 10
-1.462566365999166
 20
0.9614263225662013
 30
0.0
 10
-1.46254175641759
 20
0.9213352754464632
 30
0.0
 10
-1.462518482875542
 20
0.8636625394976513
 30
0.0
 10
-1.462509251830978
 20
0.7909312092576749
 30
0.0
 10
-1.462527590992796
 20
0.7072411256983625
 30
0.0
 10
-1.462584903132509
 20
0.6136950207062642
 30
0.0
 10
-1.462692310187848
 20
0.5114084511802314
 30
0.0
 10
-1.462853074176792
 20
0.4082905367657076
 30
0.0
 10
-1.463064136408724
 20
0.3061273304382132
 30
0.0
 10
-1.463250824649605
 20
0.233369311756975
 30
0.0
 10
-1.463392235549262
 20
0.184352819797904
 30
0.0
 10
-1.463449470610476
 20
0.1657504265114478
 30
0.0
 10
-1.463487097627549
 20
0.153797921286299
 30
0.0
 10
-1.463510060307354
 20
0.147624904647252
 30
0.0
 10
-1.463539182606115
 20
0.1388593602244151
 30
0.0
 10
-1.463529849501149
 20
0.132210268533812
 30
0.0
 10
-1.463522533942627
 20
0.1269985175084707
 30
0.0
  0
SPLINE
  5
76
330
1F
100
AcDbEntity
  8
0
  6
Continuous
 62
     7
370
    25
100
AcDbSpline
210
0.0
220
0.0
230
1.0
 70
     8
 71
     3
 72
    15
 73
    11
 74
     0
 42
0.000000001
 43
0.00000001
 40
0.0
 40
0.0
 40
0.0
 40
0.0
 40
0.1032094019312196
 40
0.2000262412061206
 40
0.2878463778294651
 40
0.3863952229875493
 40
0.5058185191642341
 40
0.6471051183124145
 40
0.8113931672370465
 40
1.0
 40
1.0
 40
1.0
 40
1.0
 10
-0.8480023766516614
 20
3.217708605981617
 30
0.0
 10
-0.8539115218296034
 20
3.210876493646756
 30
0.0
 10
-0.8653638127698481
 20
3.197635434942133
 30
0.0
 10
-0.8837856308485946
 20
3.177074852308793
 30
0.0
 10
-0.9042349729536917
 20
3.154449228729365
 30
0.0
 10
-0.9273855338200838
 20
3.129064429275654
 30
0.0
 10
-0.9547752364453577
 20
3.099200477692166
 30
0.0
 10
-0.9874549358129328
 20
3.063641042305187
 30
0.0
 10
-1.025515879651629
 20
3.022170746406539
 30
0.0
 10
-1.05259011199864
 20
2.99239136247787
 30
0.0
 10
-1.067060101441498
 20
2.97647558818962
 30
0.0
  0
SPLINE
  5
79
330
1F
100
AcDbEntity
  8
0
  6
Continuous
 62
     7
370
    25
100
AcDbSpline
210
0.0
220
0.0
230
1.0
 70
     8
 71
     3
 72
    13
 73
     9
 74
     0
 42
0.000000001
 43
0.00000001
 40
0.0
 40
0.0
 40
0.0
 40
0.0
 40
0.152309941949612
 40
0.3235421268961542
 40
0.4993014602925019
 40
0.6789461662575386
 40
0.8572779875144925
 40
1.0
 40
1.0
 40
1.0
 40
1.0
 10
-0.3759020548868076
 20
3.043339861657808
 30
0.0
 10
-0.3760100873043952
 20
3.050703622208736
 30
0.0
 10
-0.3762395735592818
 20
3.066345980941889
 30
0.0
 10
-0.3787960984638106
 20
3.089001951527204
 30
0.0
 10
-0.383337473870408
 20
3.111628691775807
 30
0.0
 10
-0.390454236287521
 20
3.133007139339156
 30
0.0
 10
-0.3994232288609429
 20
3.151891001488197
 30
0.0
 10
-0.4078148816508338
 20
3.162454115428358
 30
0.0
 10
-0.4115453263562959
 20
3.167149866486925
 30
0.0
  0
SPLINE
  5
7A
330
1F
100
AcDbEntity
  8
0
  6
Continuous
 62
     7
370
    25
100
AcDbSpline
210
0.0
220
0.0
230
1.0
 70
     8
 71
     3
 72
    10
 73
     6
 74
     0
 42
0.000000001
 43
0.00000001
 40
0.0
 40
0.0
 40
0.0
 40
0.0
 40
0.3767508203534201
 40
0.831270362393342
 40
1.0
 40
1.0
 40
1.0
 40
1.0
 10
-0.482307558945893
 20
3.073751440532103
 30
0.0
 10
-0.4809947105767752
 20
3.075007547988231
 30
0.0
 10
-0.4780980163146624
 20
3.077779047992609
 30
0.0
 10
-0.4758942371364807
 20
3.079057772986393
 30
0.0
 10
-0.476193513143127
 20
3.0789234669397
 30
0.0
 10
-0.476274534881775
 20
3.07888710682672
 30
0.0
  0
SPLINE
  5
7E
330
1F
100
AcDbEntity
  8
0
  6
Continuous
 62
     7
370
    25
100
AcDbSpline
210
0.0
220
0.0
230
1.0
 70
     8
 71
     3
 72
    13
 73
     9
 74
     0
 42
0.000000001
 43
0.00000001
 40
0.0
 40
0.0
 40
0.0
 40
0.0
 40
0.1611261152767701
 40
0.3305912942296374
 40
0.4999894352474279
 40
0.6693865241738874
 40
0.8388459549858803
 40
1.0
 40
1.0
 40
1.0
 40
1.0
 10
1.405937070508416
 20
-2.987821157222852
 30
0.0
 10
1.410506900755056
 20
-2.689284169096567
 30
0.0
 10
1.419883072290326
 20
-2.076759445152482
 30
0.0
 10
1.428043846519961
 20
-1.147951791933276
 30
0.0
 10
1.430879720176597
 20
-0.2121421804037144
 30
0.0
 10
1.428080700362025
 20
0.7196675742063334
 30
0.0
 10
1.420150730130135
 20
1.628665808356354
 30
0.0
 10
1.410602239634271
 20
2.23010470118214
 30
0.0
 10
1.405947928846297
 20
2.523269733749255
 30
0.0
  0
SPLINE
  5
81
330
1F
100
AcDbEntity
  8
0
  6
Continuous
 62
     7
370
    25
100
AcDbSpline
210
0.0
220
0.0
230
1.0
 70
     8
 71
     3
 72
    14
 73
    10
 74
     0
 42
0.000000001
 43
0.00000001
 40
0.0
 40
0.0
 40
0.0
 40
0.0
 40
0.1268414285821536
 40
0.2703852936763657
 40
0.4164100935458325
 40
0.5666603319785557
 40
0.7209963854775572
 40
0.8785238886722693
 40
1.0
 40
1.0
 40
1.0
 40
1.0
 10
-0.3556962360363597
 20
1.884121798130512
 30
0.0
 10
-0.3563804854990434
 20
1.88492922324385
 30
0.0
 10
-0.3578390861627516
 20
1.886650394936982
 30
0.0
 10
-0.3619534285411797
 20
1.894049785325489
 30
0.0
 10
-0.3663692007533166
 20
1.90561047724017
 30
0.0
 10
-0.3704924892841042
 20
1.921335658270416
 30
0.0
 10
-0.3736620930017755
 20
1.94093342227026
 30
0.0
 10
-0.3755863267676857
 20
1.961826527308945
 30
0.0
 10
-0.3756611070951454
 20
1.977071139139806
 30
0.0
 10
-0.3756936658969343
 20
1.983708530440574
 30
0.0
  0
SPLINE
  5
83
330
1F
100
AcDbEntity
  8
0
  6
Continuous
 62
     7
370
    25
100
AcDbSpline
210
0.0
220
0.0
230
1.0
 70
     8
 71
     3
 72
     9
 73
     5
 74
     0
 42
0.000000001
 43
0.00000001
 40
0.0
 40
0.0
 40
0.0
 40
0.0
 40
0.0805026843727515
 40
1.0
 40
1.0
 40
1.0
 40
1.0
 10
-1.042013051662839
 20
3.003978955497472
 30
0.0
 10
-1.042101626890455
 20
3.009538645134157
 30
0.0
 10
-1.043201903586893
 20
3.078600809706716
 30
0.0
 10
-1.044449400052584
 20
3.1475111854434
 30
0.0
 10
-1.045596469704042
 20
3.210874090952147
 30
0.0
  0
SPLINE
  5
84
330
1F
100
AcDbEntity
  8
0
  6
Continuous
 62
     7
370
    25
100
AcDbSpline
210
0.0
220
0.0
230
1.0
 70
     8
 71
     3
 72
    39
 73
    35
 74
     0
 42
0.000000001
 43
0.00000001
 40
0.0
 40
0.0
 40
0.0
 40
0.0
 40
0.0023850828152765
 40
0.0071515611532242
 40
0.0256018903576283
 40
0.0490153798611361
 40
0.0714221171111208
 40
0.0928177703702951
 40
0.1131985082420486
 40
0.1479163145340968
 40
0.179194463421192
 40
0.2070194933407131
 40
0.2388583512334231
 40
0.2644675037428619
 40
0.2838353088108796
 40
0.2970314434255417
 40
0.3095196211296394
 40
0.320992660353468
 40
0.33144997209456
 40
0.3410994213041074
 40
0.3535629745037196
 40
0.3701594912529754
 40
0.3940373641213157
 40
0.4232544598920664
 40
0.4578096604530177
 40
0.4976987681645276
 40
0.5429131764708133
 40
0.5934384292427757
 40
0.6492527136025892
 40
0.7103253391005963
 40
0.7766152645907165
 40
0.8480697427188999
 40
0.9246231602669321
 40
1.0
 40
1.0
 40
1.0
 40
1.0
 10
-1.463529261838787
 20
0.1284366676800728
 30
0.0
 10
-1.463531968018215
 20
0.1266288997964761
 30
0.0
 10
-1.463540082372796
 20
0.1212083909204026
 30
0.0
 10
-1.463431039331926
 20
0.1019350056049034
 30
0.0
 10
-1.463324944748939
 20
0.0558610286524921
 30
0.0
 10
-1.463159575662279
 20
-0.0021049729708552
 30
0.0
 10
-1.463017982538637
 20
-0.06442199569584
 30
0.0
 10
-1.462897518581539
 20
-0.1234674546745245
 30
0.0
 10
-1.462774438951155
 20
-0.193939334946427
 30
0.0
 10
-1.46266381069432
 20
-0.2734300792474278
 30
0.0
 10
-1.462579839887718
 20
-0.359728327759324
 30
0.0
 10
-1.462528988396004
 20
-0.4433233000415241
 30
0.0
 10
-1.462509685740837
 20
-0.5216580173847046
 30
0.0
 10
-1.462516436506818
 20
-0.5921645830113808
 30
0.0
 10
-1.462535684414443
 20
-0.6455213649043904
 30
0.0
 10
-1.462558431987229
 20
-0.6867629217586845
 30
0.0
 10
-1.462582256037642
 20
-0.7207453421841655
 30
0.0
 10
-1.462608695442335
 20
-0.7522393611588434
 30
0.0
 10
-1.462636609610864
 20
-0.7811428039560354
 30
0.0
 10
-1.462668851907718
 20
-0.8109668697835292
 30
0.0
 10
-1.462711680195306
 20
-0.8464359683457537
 30
0.0
 10
-1.462778293745341
 20
-0.8949506606287422
 30
0.0
 10
-1.462880673902802
 20
-0.9588239239764893
 30
0.0
 10
-1.463033579467266
 20
-1.039153662177257
 30
0.0
 10
-1.463248681148316
 20
-1.134149982418873
 30
0.0
 10
-1.463543287786913
 20
-1.243796331753699
 30
0.0
 10
-1.463937727859663
 20
-1.368067280280852
 30
0.0
 10
-1.46445578668395
 20
-1.506925833400752
 30
0.0
 10
-1.465125174910826
 20
-1.660320851569463
 30
0.0
 10
-1.465979011657737
 20
-1.828184859861423
 30
0.0
 10
-1.467054338375856
 20
-2.010429756781746
 30
0.0
 10
-1.4684047233631
 20
-2.206952108556038
 30
0.0
 10
-1.470011175833731
 20
-2.411914393712354
 30
0.0
 10
-1.471332749215064
 20
-2.551463748087214
 30
0.0
 10
-1.471988418643544
 20
-2.620698076441605
 30
0.0
  0
SPLINE
  5
85
330
1F
100
AcDbEntity
  8
0
  6
Continuous
 62
     7
370
    25
100
AcDbSpline
210
0.0
220
0.0
230
1.0
 70
     8
 71
     3
 72
     9
 73
     5
 74
     0
 42
0.000000001
 43
0.00000001
 40
0.0
 40
0.0
 40
0.0
 40
0.0
 40
0.5409293275740964
 40
1.0
 40
1.0
 40
1.0
 40
1.0
 10
0.1289084837473981
 20
-3.892016786968085
 30
0.0
 10
0.1804404806254551
 20
-3.846853011775496
 30
0.0
 10
0.2757061544412242
 20
-3.763360080462019
 30
0.0
 10
0.3728628293037761
 20
-3.680685080785288
 30
0.0
 10
0.4174646093635926
 20
-3.642731413090879
 30
0.0
  0
SPLINE
  5
86
330
1F
100
AcDbEntity
  8
0
  6
Continuous
 62
     7
370
    25
100
AcDbSpline
210
0.0
220
0.0
230
1.0
 70
     8
 71
     3
 72
    14
 73
    10
 74
     0
 42
0.000000001
 43
0.00000001
 40
0.0
 40
0.0
 40
0.0
 40
0.0
 40
0.0442043790978461
 40
0.2298136248253569
 40
0.4086946620114013
 40
0.5771879138395375
 40
0.699336414145635
 40
0.8348394616954673
 40
1.0
 40
1.0
 40
1.0
 40
1.0
 10
-0.3756936658969319
 20
-2.225366854395561
 30
0.0
 10
-0.3757374246805062
 20
-2.223353800261041
 30
0.0
 10
-0.3759649217040226
 20
-2.212888156877619
 30
0.0
 10
-0.3748142674589742
 20
-2.192237489350746
 30
0.0
 10
-0.3722521975734314
 20
-2.164557052433619
 30
0.0
 10
-0.3686258706632867
 20
-2.13920011788423
 30
0.0
 10
-0.3644134471263574
 20
-2.115857551500953
 30
0.0
 10
-0.3594904234637186
 20
-2.092493702579277
 30
0.0
 10
-0.3551839989891215
 20
-2.075917460092762
 30
0.0
 10
-0.3528183936486172
 20
-2.066811797615014
 30
0.0
  0
SPLINE
  5
87
330
1F
100
AcDbEntity
  8
0
  6
Continuous
 62
     7
370
    25
100
AcDbSpline
210
0.0
220
0.0
230
1.0
 70
     8
 71
     3
 72
    12
 73
     8
 74
     0
 42
0.000000001
 43
0.00000001
 40
0.0
 40
0.0
 40
0.0
 40
0.0
 40
0.3231614142507553
 40
0.4540403311967303
 40
0.6693520952147765
 40
0.889591384986547
 40
0.9999999999999999
 40
0.9999999999999999
 40
0.9999999999999999
 40
0.9999999999999999
 10
-0.3528183936486171
 20
-2.066811797615014
 30
0.0
 10
-0.3492660496697108
 20
-2.054462548122516
 30
0.0
 10
-0.3442750223824748
 20
-2.037111908218292
 30
0.0
 10
-0.3357220810731456
 20
-2.012279297311236
 30
0.0
 10
-0.3279878891184998
 20
-1.991806025771768
 30
0.0
 10
-0.3200574046772712
 20
-1.972643965717837
 30
0.0
 10
-0.3148951834434454
 20
-1.961890198144213
 30
0.0
 10
-0.3131714353459336
 20
-1.958299343441076
 30
0.0
  0
SPLINE
  5
88
330
1F
100
AcDbEntity
  8
0
  6
Continuous
 62
     7
370
    25
100
AcDbSpline
210
0.0
220
0.0
230
1.0
 70
     8
 71
     3
 72
     9
 73
     5
 74
     0
 42
0.000000001
 43
0.00000001
 40
0.0
 40
0.0
 40
0.0
 40
0.0
 40
0.4509542878224749
 40
1.0
 40
1.0
 40
1.0
 40
1.0
 10
-0.6381046380158939
 20
-2.95314020955998
 30
0.0
 10
-0.6381923479031837
 20
-2.95204772930501
 30
0.0
 10
-0.6383868463028183
 20
-2.94962513285905
 30
0.0
 10
-0.6382853701690647
 20
-2.946650924739548
 30
0.0
 10
-0.638229655132939
 20
-2.945017948524411
 30
0.0
  0
SPLINE
  5
8C
330
1F
100
AcDbEntity
  8
0
  6
Continuous
 62
     7
370
    25
100
AcDbSpline
210
0.0
220
0.0
230
1.0
 70
     8
 71
     3
 72
    10
 73
     6
 74
     0
 42
0.000000001
 43
0.00000001
 40
0.0
 40
0.0
 40
0.0
 40
0.0
 40
0.267606499858319
 40
0.673600270626806
 40
1.0
 40
1.0
 40
1.0
 40
1.0
 10
-0.5990913792514376
 20
-3.67318650319352
 30
0.0
 10
-0.5939551331568301
 20
-3.671296865742558
 30
0.0
 10
-0.5810265355287259
 20
-3.666540403178948
 30
0.0
 10
-0.5641246663920222
 20
-3.655313436888421
 30
0.0
 10
-0.5531104534098361
 20
-3.644864128179248
 30
0.0
 10
-0.5482018405726812
 20
-3.640207271538452
 30
0.0
  0
SPLINE
  5
8D
330
1F
100
AcDbEntity
  8
0
  6
Continuous
 62
     7
370
    25
100
AcDbSpline
210
0.0
220
0.0
230
1.0
 70
     8
 71
     3
 72
    12
 73
     8
 74
     0
 42
0.000000001
 43
0.00000001
 40
0.0
 40
0.0
 40
0.0
 40
0.0
 40
0.1116553743621522
 40
0.334156617080542
 40
0.5655149944907056
 40
0.8070293092882032
 40
1.0
 40
1.0
 40
1.0
 40
1.0
 10
-0.6102290101989714
 20
-3.564336685131933
 30
0.0
 10
-0.610187569694962
 20
-3.564403778110774
 30
0.0
 10
-0.6100635486282733
 20
-3.564604570620471
 30
0.0
 10
-0.6118824149051474
 20
-3.560730380986256
 30
0.0
 10
-0.614009617757331
 20
-3.552639304118674
 30
0.0
 10
-0.6158571628608195
 20
-3.541702722111409
 30
0.0
 10
-0.6162710512557005
 20
-3.532530739344211
 30
0.0
 10
-0.6164548742379097
 20
-3.528457126153099
 30
0.0
  0
SPLINE
  5
8F
330
1F
100
AcDbEntity
  8
0
  6
Continuous
 62
     7
370
    25
100
AcDbSpline
210
0.0
220
0.0
230
1.0
 70
     8
 71
     3
 72
    13
 73
     9
 74
     0
 42
0.000000001
 43
0.00000001
 40
0.0
 40
0.0
 40
0.0
 40
0.0
 40
0.2814489311154806
 40
0.3956358299058849
 40
0.5838531642327491
 40
0.7768430039657467
 40
0.9821263370994624
 40
0.9999999999999999
 40
0.9999999999999999
 40
0.9999999999999999
 40
0.9999999999999999
 10
-0.3931495374730904
 20
-3.406858363405465
 30
0.0
 10
-0.3902170728109656
 20
-3.395225911138209
 30
0.0
 10
-0.3860948752752661
 20
-3.378874046207133
 30
0.0
 10
-0.3816850798002821
 20
-3.354747925129447
 30
0.0
 10
-0.3786745764383004
 20
-3.334408654995334
 30
0.0
 10
-0.3765722409216652
 20
-3.310889933154506
 30
0.0
 10
-0.3756155052273957
 20
-3.294413058844397
 30
0.0
 10
-0.3758808057559302
 20
-3.286072181657684
 30
0.0
 10
-0.3759020548868051
 20
-3.285404122713624
 30
0.0
  0
SPLINE
  5
90
330
1F
100
AcDbEntity
  8
0
  6
Continuous
 62
     7
370
    25
100
AcDbSpline
210
0.0
220
0.0
230
1.0
 70
     8
 71
     3
 72
    16
 73
    12
 74
     0
 42
0.000000001
 43
0.00000001
 40
0.0
 40
0.0
 40
0.0
 40
0.0
 40
0.0365771180729909
 40
0.1864364290159491
 40
0.3285137683084497
 40
0.4646403677873202
 40
0.6133724209922405
 40
0.7235736306624273
 40
0.8194755912184014
 40
0.9384049395126673
 40
1.0
 40
1.0
 40
1.0
 40
1.0
 10
-0.4823456482451691
 20
-3.575929608911895
 30
0.0
 10
-0.4808404957112314
 20
-3.574604131566057
 30
0.0
 10
-0.4731686156305852
 20
-3.567848069959283
 30
0.0
 10
-0.4612584744990624
 20
-3.552960455422867
 30
0.0
 10
-0.4463785073642672
 20
-3.53199018669331
 30
0.0
 10
-0.4327363302138174
 20
-3.508634488858183
 30
0.0
 10
-0.4211346238828269
 20
-3.48521786704814
 30
0.0
 10
-0.4116800461505767
 20
-3.462936346461397
 30
0.0
 10
-0.4037889538249828
 20
-3.441793621351466
 30
0.0
 10
-0.3977507442134507
 20
-3.423306148660245
 30
0.0
 10
-0.3943200819499264
 20
-3.411042670973582
 30
0.0
 10
-0.3931495374730904
 20
-3.406858363405465
 30
0.0
  0
SPLINE
  5
91
330
1F
100
AcDbEntity
  8
0
  6
Continuous
 62
     7
370
    25
100
AcDbSpline
210
0.0
220
0.0
230
1.0
 70
     8
 71
     3
 72
    81
 73
    77
 74
     0
 42
0.000000001
 43
0.00000001
 40
0.0
 40
0.0
 40
0.0
 40
0.0
 40
0.0121673032867407
 40
0.0242014472842749
 40
0.0361028677585143
 40
0.0478721433828831
 40
0.0595099818862531
 40
0.0710170964438907
 40
0.0823929993791537
 40
0.0936368562062726
 40
0.1047485776751149
 40
0.1157288063581845
 40
0.1265788763227655
 40
0.137300768336869
 40
0.1478970594698343
 40
0.158369760758023
 40
0.168718035691907
 40
0.1789405213196356
 40
0.1890358712935511
 40
0.199002771650008
 40
0.2088399545482619
 40
0.2185462098748056
 40
0.228120392857912
 40
0.237561431045862
 40
0.2468683298994218
 40
0.2560401768901684
 40
0.2650761442598165
 40
0.273975490583767
 40
0.2827375612710548
 40
0.2913617881226745
 40
0.2998476880608874
 40
0.3081948609911211
 40
0.3164028972293461
 40
0.3244714237229995
 40
0.3324012790629355
 40
0.3401936173294395
 40
0.3478494017828186
 40
0.3553694252838172
 40
0.3627543303385872
 40
0.3700046275575407
 40
0.3771207125957762
 40
0.3841028816469166
 40
0.3909513455648188
 40
0.3976662426889539
 40
0.40424765044952
 40
0.4106955958277321
 40
0.417010064831755
 40
0.4231910188087789
 40
0.4292384156601268
 40
0.4351522088170548
 40
0.4409323483531635
 40
0.4465787826675433
 40
0.4520914599252506
 40
0.4574703292768508
 40
0.4627153418773845
 40
0.4678264517237658
 40
0.4728036163283549
 40
0.4776467972452206
 40
0.4823559604644495
 40
0.4869310766887482
 40
0.4913721211642926
 40
0.4956790723169441
 40
0.4998519134064518
 40
0.5323611603161404
 40
0.5640688277042256
 40
0.5949662606457746
 40
0.6250531509089617
 40
0.6611495800651309
 40
0.7028819986305224
 40
0.750302244662951
 40
0.8115470406790711
 40
0.8531104499968806
 40
0.8750993098713474
 40
0.9091347028652905
 40
0.9507735703140746
 40
1.0
 40
1.0
 40
1.0
 40
1.0
 10
1.425994946791121
 20
-0.2287703125279721
 30
0.0
 10
1.424374523824812
 20
-0.2326388551596818
 30
0.0
 10
1.421151411844023
 20
-0.2403336029901497
 30
0.0
 10
1.41590643203387
 20
-0.2517621433283646
 30
0.0
 10
1.410399790002527
 20
-0.2630242615193602
 30
0.0
 10
1.404606694871638
 20
-0.2741149910428265
 30
0.0
 10
1.398540696442688
 20
-0.2850336042858705
 30
0.0
 10
1.392208373997036
 20
-0.2957784548688946
 30
0.0
 10
1.385604675740751
 20
-0.3063454126383632
 30
0.0
 10
1.378717228112668
 20
-0.3167284623405445
 30
0.0
 10
1.371537493814441
 20
-0.3269220954326995
 30
0.0
 10
1.36405777644799
 20
-0.3369212309391026
 30
0.0
 10
1.356271830622326
 20
-0.3467213033593805
 30
0.0
 10
1.348174871601246
 20
-0.3563182688352485
 30
0.0
 10
1.339762976562027
 20
-0.3657080788265419
 30
0.0
 10
1.331037369138337
 20
-0.3748864148122799
 30
0.0
 10
1.32202155223335
 20
-0.3838532021015823
 30
0.0
 10
1.31273733105643
 20
-0.3926073371108265
 30
0.0
 10
1.303206401808257
 20
-0.4011479861968595
 30
0.0
 10
1.293449622639723
 20
-0.4094746038617814
 30
0.0
 10
1.283487190204128
 20
-0.4175869536371781
 30
0.0
 10
1.273338627835176
 20
-0.4254850895919264
 30
0.0
 10
1.263022796713054
 20
-0.4331693449434076
 30
0.0
 10
1.252557911286731
 20
-0.4406403196192989
 30
0.0
 10
1.241961555945639
 20
-0.4478988690227667
 30
0.0
 10
1.231250700820287
 20
-0.4549460928478917
 30
0.0
 10
1.220441717561514
 20
-0.4617833241384546
 30
0.0
 10
1.209550394543339
 20
-0.4684121183152794
 30
0.0
 10
1.198591952949582
 20
-0.4748342429916112
 30
0.0
 10
1.187581058579518
 20
-0.4810516656389074
 30
0.0
 10
1.176531848226614
 20
-0.487066549765846
 30
0.0
 10
1.165457941908125
 20
-0.4928811997987466
 30
0.0
 10
1.154372633285841
 20
-0.4984981313549868
 30
0.0
 10
1.14328810332814
 20
-0.5039201662208884
 30
0.0
 10
1.132218548445424
 20
-0.5091523143105386
 30
0.0
 10
1.121177232892034
 20
-0.5142002059132085
 30
0.0
 10
1.110176444019022
 20
-0.5190693566120134
 30
0.0
 10
1.099227932588515
 20
-0.5237651523688281
 30
0.0
 10
1.088342885848499
 20
-0.528292825781271
 30
0.0
 10
1.077531958213066
 20
-0.5326574658314286
 30
0.0
 10
1.066805286351849
 20
-0.5368640189355017
 30
0.0
 10
1.056172507762205
 20
-0.5409172920945855
 30
0.0
 10
1.045642778511068
 20
-0.544821955811153
 30
0.0
 10
1.035224788885949
 20
-0.5485825456289113
 30
0.0
 10
1.024926785940717
 20
-0.5522034689360769
 30
0.0
 10
1.01475656920803
 20
-0.5556889923440176
 30
0.0
 10
1.00472157765557
 20
-0.559043300614962
 30
0.0
 10
0.9948286015412827
 20
-0.5622702885131392
 30
0.0
 10
0.9850835834209638
 20
-0.5653733827835777
 30
0.0
 10
0.9754922628078093
 20
-0.5683560121173927
 30
0.0
 10
0.9660600778721828
 20
-0.5712215251815943
 30
0.0
 10
0.9567922048038148
 20
-0.5739732105309
 30
0.0
 10
0.9476935602983233
 20
-0.5766142904224935
 30
0.0
 10
0.9387688131897876
 20
-0.5791479214531194
 30
0.0
 10
0.9300223934344773
 20
-0.5815771934489204
 30
0.0
 10
0.921458501455858
 20
-0.5839051288393238
 30
0.0
 10
0.9130811172281308
 20
-0.5861346818917942
 30
0.0
 10
0.9048940087008542
 20
-0.5882687381340719
 30
0.0
 10
0.8969007416688183
 20
-0.5903101132866152
 30
0.0
 10
0.8891046835744147
 20
-0.5922615539541969
 30
0.0
 10
0.8815090294736981
 20
-0.5941257317474844
 30
0.0
 10
0.8741167459842688
 20
-0.5959052554858915
 30
0.0
 10
0.8505879598038003
 20
-0.6014628404833291
 30
0.0
 10
0.810765261822508
 20
-0.6101050763134839
 30
0.0
 10
0.7542061110043444
 20
-0.6205605981132215
 30
0.0
 10
0.6981158512689948
 20
-0.6292370035279717
 30
0.0
 10
0.6385017704348749
 20
-0.6366728915470565
 30
0.0
 10
0.5713498465821282
 20
-0.6428226343977181
 30
0.0
 10
0.4925559728522202
 20
-0.646855887533284
 30
0.0
 10
0.397501984252358
 20
-0.6478169449811393
 30
0.0
 10
0.3026920250408109
 20
-0.644654932014608
 30
0.0
 10
0.2245653369944807
 20
-0.6392233924318742
 30
0.0
 10
0.1637480502374202
 20
-0.6340715596184958
 30
0.0
 10
0.1030492758801672
 20
-0.6284528606158329
 30
0.0
 10
0.0255585859761676
 20
-0.6208559116085455
 30
0.0
 10
-0.0305445022678266
 20
-0.6146385856570752
 30
0.0
 10
-0.0609384460031548
 20
-0.6112703387197346
 30
0.0
  0
SPLINE
  5
92
330
1F
100
AcDbEntity
  8
0
  6
Continuous
 62
     7
370
    25
100
AcDbSpline
210
0.0
220
0.0
230
1.0
 70
     8
 71
     3
 72
    11
 73
     7
 74
     0
 42
0.000000001
 43
0.00000001
 40
0.0
 40
0.0
 40
0.0
 40
0.0
 40
0.975
 40
1.0
 40
1.0
 40
1.044958417397565
 40
1.044958417397565
 40
1.044958417397565
 40
1.044958417397565
 10
-0.0323042846203602
 20
2.818149384286044
 30
0.0
 10
-0.0508673873127013
 20
1.694902664843325
 30
0.0
 10
-0.0606985689455323
 20
0.5513183169035057
 30
0.0
 10
-0.0609384460029945
 20
-0.5829202269124687
 30
0.0
 10
-0.0609384460030733
 20
-0.5958939503150639
 30
0.0
 10
-0.0609384460031171
 20
-0.6037776537461852
 30
0.0
 10
-0.0609384460031547
 20
-0.6112703387891084
 30
0.0
  0
SPLINE
  5
93
330
1F
100
AcDbEntity
  8
0
  6
Continuous
 62
     7
370
    25
100
AcDbSpline
210
0.0
220
0.0
230
1.0
 70
     8
 71
     3
 72
    52
 73
    48
 74
     0
 42
0.000000001
 43
0.00000001
 40
0.0
 40
0.0
 40
0.0
 40
0.0
 40
0.0625000000000004
 40
0.0625000000000004
 40
0.0937500000000007
 40
0.0937500000000007
 40
0.125000000000001
 40
0.125000000000001
 40
0.1875000000000017
 40
0.1875000000000017
 40
0.2187500000000017
 40
0.2187500000000017
 40
0.2500000000000017
 40
0.2500000000000017
 40
0.3125000000000016
 40
0.3125000000000016
 40
0.3281250000000018
 40
0.3281250000000018
 40
0.3437500000000019
 40
0.3437500000000019
 40
0.3750000000000017
 40
0.3750000000000017
 40
0.4062500000000016
 40
0.4062500000000016
 40
0.4375000000000014
 40
0.4375000000000014
 40
0.5000000000000013
 40
0.5000000000000013
 40
0.5625000000000012
 40
0.5625000000000012
 40
0.6250000000000011
 40
0.6250000000000011
 40
0.6562500000000011
 40
0.6562500000000011
 40
0.6875000000000011
 40
0.6875000000000011
 40
0.7500000000000009
 40
0.7500000000000009
 40
0.7812500000000008
 40
0.7812500000000008
 40
0.8125000000000007
 40
0.8125000000000007
 40
0.8750000000000004
 40
0.8750000000000004
 40
0.9375000000000002
 40
0.9375000000000002
 40
1.0
 40
1.0
 40
1.0
 40
1.0
 10
-0.0323042846261697
 20
2.818149384279363
 30
0.0
 10
0.0033332003752857
 20
2.791698360142125
 30
0.0
 10
0.0400743682608314
 20
2.766280472395009
 30
0.0
 10
0.0905451245280153
 20
2.723764103912439
 30
0.0
 10
0.1064902126924876
 20
2.708760559452562
 30
0.0
 10
0.1361911836967093
 20
2.67668881060321
 30
0.0
 10
0.1500993475628653
 20
2.659568193469023
 30
0.0
 10
0.1885767777984961
 20
2.607135877947903
 30
0.0
 10
0.2100790299533686
 20
2.570602220509057
 30
0.0
 10
0.2395985670107902
 20
2.514941745010626
 30
0.0
 10
0.2490156248229431
 20
2.496258202731021
 30
0.0
 10
0.2684360024476299
 20
2.459213991988078
 30
0.0
 10
0.2784607859840432
 20
2.440825258224656
 30
0.0
 10
0.311162108116402
 20
2.387236745485224
 30
0.0
 10
0.3362063844746659
 20
2.353487217359826
 30
0.0
 10
0.372459359047253
 20
2.314716183813362
 30
0.0
 10
0.3799640981581986
 20
2.307136926751648
 30
0.0
 10
0.3955371091534456
 20
2.29237323946524
 30
0.0
 10
0.403627062105767
 20
2.285177134777119
 30
0.0
 10
0.4284526792120366
 20
2.264540630124728
 30
0.0
 10
0.4458240306120841
 20
2.251934623185643
 30
0.0
 10
0.4821882575186048
 20
2.229116342371697
 30
0.0
 10
0.5011852873120406
 20
2.218910442665491
 30
0.0
 10
0.5406553155487774
 20
2.200879891840296
 30
0.0
 10
0.5611730274995566
 20
2.193057588119658
 30
0.0
 10
0.6231662089700084
 20
2.173841442821066
 30
0.0
 10
0.6656351149985007
 20
2.166513963161644
 30
0.0
 10
0.7516534192777752
 20
2.160199164008569
 30
0.0
 10
0.793953797395642
 20
2.161450058206894
 30
0.0
 10
0.8767533470146314
 20
2.169440663764294
 30
0.0
 10
0.9173101301349558
 20
2.175963418602738
 30
0.0
 10
0.9766403420793963
 20
2.188859492921343
 30
0.0
 10
0.9961096299215025
 20
2.193688146904158
 30
0.0
 10
1.033919296988043
 20
2.204218384070709
 30
0.0
 10
1.052327604629337
 20
2.209934201280695
 30
0.0
 10
1.105992915013798
 20
2.228328266134664
 30
0.0
 10
1.13970992388343
 20
2.242211125370831
 30
0.0
 10
1.186746376975672
 20
2.265659728086168
 30
0.0
 10
1.201910250889211
 20
2.273969380764034
 30
0.0
 10
1.230403308326384
 20
2.291241785628416
 30
0.0
 10
1.243735581525206
 20
2.300205823931886
 30
0.0
 10
1.281010896020112
 20
2.328049709208167
 30
0.0
 10
1.302344370503461
 20
2.347853737566964
 30
0.0
 10
1.339450870130968
 20
2.389460469295399
 30
0.0
 10
1.355240143708359
 20
2.411346359376495
 30
0.0
 10
1.381860249832441
 20
2.455908828727916
 30
0.0
 10
1.392793608246699
 20
2.478685174797796
 30
0.0
 10
1.401919057367566
 20
2.501871990185603
 30
0.0
  0
SPLINE
  5
94
330
1F
100
AcDbEntity
  8
0
  6
Continuous
 62
     7
370
    25
100
AcDbSpline
210
0.0
220
0.0
230
1.0
 70
     8
 71
     3
 72
    14
 73
    10
 74
     0
 42
0.000000001
 43
0.00000001
 40
0.0
 40
0.0
 40
0.0
 40
0.0
 40
0.5
 40
0.5
 40
0.75
 40
0.75
 40
0.875
 40
0.875
 40
1.0
 40
1.0
 40
1.0
 40
1.0
 10
1.401919091916579
 20
2.501869985909107
 30
0.0
 10
1.409936177703895
 20
2.050827712136464
 30
0.0
 10
1.415959443097999
 20
1.597729755218643
 30
0.0
 10
1.421981651869155
 20
0.9150435496264717
 30
0.0
 10
1.423487229380894
 20
0.6869764334947527
 30
0.0
 10
1.42499242621902
 20
0.3441273745819052
 30
0.0
 10
1.425368642734307
 20
0.2297198162179375
 30
0.0
 10
1.425870165741482
 20
0.0006593483537991
 30
0.0
 10
1.425984415363893
 20
-0.1140302218892442
 30
0.0
 10
1.425996406800867
 20
-0.2287667476372832
 30
0.0
  0
SPLINE
  5
95
330
1F
100
AcDbEntity
  8
0
  6
Continuous
 62
     7
370
    25
100
AcDbSpline
210
0.0
220
0.0
230
1.0
 70
     8
 71
     3
 72
    14
 73
    10
 74
     0
 42
0.000000001
 43
0.00000001
 40
0.0
 40
0.0
 40
0.0
 40
0.0
 40
0.1499980791720106
 40
0.2999989471833596
 40
0.4499994011654435
 40
0.6000002863432201
 40
0.7499999823400721
 40
0.8750007257185031
 40
1.0
 40
1.0
 40
1.0
 40
1.0
 10
1.275563393441406
 20
2.543838150839596
 30
0.0
 10
1.281921432211858
 20
2.541771658931693
 30
0.0
 10
1.294637627964601
 20
2.537638636694634
 30
0.0
 10
1.313572788257862
 20
2.531331476821699
 30
0.0
 10
1.332454291298254
 20
2.524977365170832
 30
0.0
 10
1.351316048286372
 20
2.518602059459749
 30
0.0
 10
1.369162463973576
 20
2.512604545120029
 30
0.0
 10
1.386015345265229
 20
2.507008469137223
 30
0.0
 10
1.396617505838057
 20
2.503581487268762
 30
0.0
 10
1.40191855497327
 20
2.50186800640367
 30
0.0
  0
SPLINE
  5
97
330
1F
100
AcDbEntity
  8
0
  6
Continuous
 62
     7
370
    25
100
AcDbSpline
210
0.0
220
0.0
230
1.0
 70
     8
 71
     3
 72
    72
 73
    68
 74
     0
 42
0.000000001
 43
0.00000001
 40
0.0
 40
0.0
 40
0.0
 40
0.0
 40
0.0156249999999998
 40
0.0156249999999998
 40
0.0312499999999996
 40
0.0312499999999996
 40
0.0624999999999992
 40
0.0624999999999992
 40
0.0937499999999988
 40
0.0937499999999988
 40
0.1249999999999984
 40
0.1249999999999984
 40
0.1562499999999979
 40
0.1562499999999979
 40
0.1874999999999975
 40
0.1874999999999975
 40
0.2499999999999966
 40
0.2499999999999966
 40
0.2812499999999962
 40
0.2812499999999962
 40
0.3124999999999958
 40
0.3124999999999958
 40
0.3437499999999954
 40
0.3437499999999954
 40
0.374999999999995
 40
0.374999999999995
 40
0.4062499999999946
 40
0.4062499999999946
 40
0.4374999999999942
 40
0.4374999999999942
 40
0.4531249999999941
 40
0.4531249999999941
 40
0.468749999999994
 40
0.468749999999994
 40
0.4843749999999939
 40
0.4843749999999939
 40
0.4999999999999939
 40
0.4999999999999939
 40
0.5312499999999938
 40
0.5312499999999938
 40
0.5468749999999939
 40
0.5468749999999939
 40
0.5624999999999941
 40
0.5624999999999941
 40
0.5937499999999944
 40
0.5937499999999944
 40
0.6249999999999949
 40
0.6249999999999949
 40
0.6562499999999953
 40
0.6562499999999953
 40
0.6874999999999958
 40
0.6874999999999958
 40
0.7187499999999962
 40
0.7187499999999962
 40
0.7499999999999966
 40
0.7499999999999966
 40
0.781249999999997
 40
0.781249999999997
 40
0.8124999999999974
 40
0.8124999999999974
 40
0.8437499999999979
 40
0.8437499999999979
 40
0.8749999999999983
 40
0.8749999999999983
 40
0.9374999999999991
 40
0.9374999999999991
 40
1.0
 40
1.0
 40
1.0
 40
1.0
 10
1.275562348860014
 20
2.543827708104033
 30
0.0
 10
1.276450618812519
 20
2.537839860436336
 30
0.0
 10
1.277594526436066
 20
2.531854977022866
 30
0.0
 10
1.278986611498361
 20
2.52005688657114
 30
0.0
 10
1.279278604906773
 20
2.514238815958928
 30
0.0
 10
1.278559904967131
 20
2.497002728878265
 30
0.0
 10
1.276060406622017
 20
2.48575612397361
 30
0.0
 10
1.267553570550573
 20
2.463842284803605
 30
0.0
 10
1.261811100630347
 20
2.453357929432931
 30
0.0
 10
1.248858537992678
 20
2.432831715514114
 30
0.0
 10
1.241522267948485
 20
2.422829045230047
 30
0.0
 10
1.225150906184622
 20
2.403310642641762
 30
0.0
 10
1.216102634148607
 20
2.393800133372657
 30
0.0
 10
1.196123329890174
 20
2.375305532390097
 30
0.0
 10
1.185265261138545
 20
2.36638819016463
 30
0.0
 10
1.150292819283767
 20
2.341086499344345
 30
0.0
 10
1.123524743860043
 20
2.326043523169915
 30
0.0
 10
1.078430933963092
 20
2.306332140018318
 30
0.0
 10
1.06250507922065
 20
2.300221007288661
 30
0.0
 10
1.029751237961049
 20
2.289249789716239
 30
0.0
 10
1.012858337288366
 20
2.284359290825044
 30
0.0
 10
0.9781183339569334
 20
2.275818238604391
 30
0.0
 10
0.9602768252538082
 20
2.272163852122188
 30
0.0
 10
0.9236637804976324
 20
2.266244795052059
 30
0.0
 10
0.9047595453571707
 20
2.263980445498747
 30
0.0
 10
0.866535646142923
 20
2.261477771247976
 30
0.0
 10
0.8472167129514355
 20
2.261222342667744
 30
0.0
 10
0.808202235681397
 20
2.263209458071185
 30
0.0
 10
0.7884538097787888
 20
2.265448306570378
 30
0.0
 10
0.7587726880354513
 20
2.271248753346373
 30
0.0
 10
0.7489769182695398
 20
2.273622467130023
 30
0.0
 10
0.7295690630809852
 20
2.278888622029887
 30
0.0
 10
0.7199604851582588
 20
2.281813049367593
 30
0.0
 10
0.7010050806761762
 20
2.288758321884575
 30
0.0
 10
0.6916609010266924
 20
2.292783066354776
 30
0.0
 10
0.6732700155686232
 20
2.30202347766308
 30
0.0
 10
0.6642416655643855
 20
2.307212554376768
 30
0.0
 10
0.6382642158992077
 20
2.323915664926362
 30
0.0
 10
0.6221513460301565
 20
2.336674260847183
 30
0.0
 10
0.5995231368559304
 20
2.357837595064834
 30
0.0
 10
0.5922104722795419
 20
2.365263303039178
 30
0.0
 10
0.5782316815911359
 20
2.380575836953692
 30
0.0
 10
0.5715689991157015
 20
2.388454412125564
 30
0.0
 10
0.5524468574438702
 20
2.412678709689017
 30
0.0
 10
0.5408153671343339
 20
2.429589127411034
 30
0.0
 10
0.5198440964149568
 20
2.464947117569708
 30
0.0
 10
0.5104263415120301
 20
2.483481489153333
 30
0.0
 10
0.4939179312853698
 20
2.521434584778788
 30
0.0
 10
0.4869017230853519
 20
2.540740053211209
 30
0.0
 10
0.4748819358505038
 20
2.579886789236578
 30
0.0
 10
0.4698072789523557
 20
2.599709305374214
 30
0.0
 10
0.4608347794063146
 20
2.639689921397861
 30
0.0
 10
0.4569598288845936
 20
2.659854392317383
 30
0.0
 10
0.4500404695687401
 20
2.700445932344337
 30
0.0
 10
0.4469939364337383
 20
2.720906569158447
 30
0.0
 10
0.4414869102909695
 20
2.761508574976148
 30
0.0
 10
0.4390246759707672
 20
2.781698952546359
 30
0.0
 10
0.4343039262545147
 20
2.821786189581027
 30
0.0
 10
0.4320507407964388
 20
2.841685549298246
 30
0.0
 10
0.4272189540160585
 20
2.8811514082009
 30
0.0
 10
0.4246428479709466
 20
2.90071880227095
 30
0.0
 10
0.4182867011141621
 20
2.939499135958387
 30
0.0
 10
0.4144660710671717
 20
2.958798196618297
 30
0.0
 10
0.4000580113756313
 20
3.015083435073061
 30
0.0
 10
0.3861273714132962
 20
3.050558164052573
 30
0.0
 10
0.3535530838346786
 20
3.119252740681066
 30
0.0
 10
0.3349336881383393
 20
3.152441108174768
 30
0.0
 10
0.3162110067873291
 20
3.185501463361818
 30
0.0
  0
SPLINE
  5
98
330
1F
100
AcDbEntity
  8
0
  6
Continuous
 62
     7
370
    25
100
AcDbSpline
210
0.0
220
0.0
230
1.0
 70
     8
 71
     3
 72
    11
 73
     7
 74
     0
 42
0.000000001
 43
0.00000001
 40
0.0
 40
0.0
 40
0.0
 40
0.0
 40
0.975
 40
1.0
 40
1.0
 40
1.044958417397565
 40
1.044958417397565
 40
1.044958417397565
 40
1.044958417397565
 10
-0.0323042846203721
 20
-3.984794423156413
 30
0.0
 10
-0.0508673873127094
 20
-2.897784018292618
 30
0.0
 10
-0.0606985689455362
 20
-1.773390739652876
 30
0.0
 10
-0.0609384460029946
 20
-0.639620450527031
 30
0.0
 10
-0.0609384460030734
 20
-0.6266467271244206
 30
0.0
 10
-0.0609384460031171
 20
-0.6187630236932911
 30
0.0
 10
-0.0609384460031547
 20
-0.6112703386503607
 30
0.0
  0
LWPOLYLINE
  5
9E
330
1F
100
AcDbEntity
  8
0
  6
Continuous
 62
     7
370
    25
100
AcDbPolyline
 90
        9
 70
   128
 43
0.0
 10
0.5173965814
 20
2.6050637143
 10
0.5284997139
 20
2.6139421506
 10
0.5391969294
 20
2.6185788795
 10
0.5490971511
 20
2.6188043881
 10
0.557838439
 20
2.6146104318
 10
0.5651012224
 20
2.6061503367
 10
0.5706199828
 20
2.5937333934
 10
0.5741929612
 20
2.57781355
 10
0.5756895339
 20
2.5589728164
  0
SPLINE
  5
A0
330
1F
100
AcDbEntity
  8
0
  6
Continuous
 62
     7
370
    25
100
AcDbSpline
210
0.0
220
0.0
230
1.0
 70
     8
 71
     3
 72
    13
 73
     9
 74
     0
 42
0.000000001
 43
0.00000001
 40
0.0
 40
0.0
 40
0.0
 40
0.0
 40
0.0382153287770719
 40
0.3339844677777797
 40
0.6625821864571215
 40
0.8312552833725827
 40
0.9999180347779177
 40
1.0
 40
1.0
 40
1.0
 40
1.0
 10
0.4753126301102274
 20
-3.507051562016546
 30
0.0
 10
0.4739128389216418
 20
-3.509450728211339
 30
0.0
 10
0.4616793051518054
 20
-3.530418341740265
 30
0.0
 10
0.4478437319572605
 20
-3.5726501046213
 30
0.0
 10
0.4358862074124183
 20
-3.611690838630064
 30
0.0
 10
0.425649120569681
 20
-3.632751121896986
 30
0.0
 10
0.4207681251940711
 20
-3.641352381356885
 30
0.0
 10
0.4154289491019779
 20
-3.64441951854268
 30
0.0
 10
0.4154263556770524
 20
-3.644421008358691
 30
0.0
  0
LWPOLYLINE
  5
AD
330
1F
100
AcDbEntity
  8
0
  6
Continuous
 62
     7
370
    25
100
AcDbPolyline
 90
        8
 70
   128
 43
0.0
 10
-0.2726154087
 20
2.6638320815
 10
-0.2828813318
 20
2.6594996034
 10
-0.2928201132
 20
2.6593311655
 10
-0.3015824575
 20
2.6636271088
 10
-0.3088446834
 20
2.6722287411
 10
-0.314338524
 20
2.6848183177
 10
-0.3178610365
 20
2.7009307792
 10
-0.3192820993
 20
2.7199709304
  0
LWPOLYLINE
  5
AE
330
1F
100
AcDbEntity
  8
0
  6
Continuous
 62
     7
370
    25
100
AcDbPolyline
 90
       15
 70
   128
 43
0.0
 10
-0.2786382074
 20
2.3332812403
 10
-0.2896836972
 20
2.3094400846
 10
-0.303605399
 20
2.2740135513
 10
-0.3154956556
 20
2.2368386681
 10
-0.3250616895
 20
2.198830804
 10
-0.3320679531
 20
2.1609258389
 10
-0.336341929
 20
2.1240571187
 10
-0.3377783777
 20
2.0891324737
 10
-0.336341929
 20
2.0570118646
 10
-0.3320679531
 20
2.0284862074
 10
-0.3250616895
 20
2.0042578984
 10
-0.3154956556
 20
1.984923519
 10
-0.303605399
 20
1.9709591458
 10
-0.2896836972
 20
1.962708628
 10
-0.2866708283
 20
1.9617607657
  0
LWPOLYLINE
  5
AF
330
1F
100
AcDbEntity
  8
0
  6
Continuous
 62
     7
370
    25
100
AcDbPolyline
 90
       13
 70
   128
 43
0.0
 10
-0.2977035293
 20
-1.995948034
 10
-0.303605399
 20
-2.0118229523
 10
-0.3154956556
 20
-2.0489978355
 10
-0.3250616895
 20
-2.0870056995
 10
-0.3320679531
 20
-2.1249106646
 10
-0.336341929
 20
-2.1617793848
 10
-0.3377783777
 20
-2.1967040298
 10
-0.336341929
 20
-2.2288246389
 10
-0.3320679531
 20
-2.2573502961
 10
-0.3250616895
 20
-2.2815786051
 10
-0.3154956556
 20
-2.3009129845
 10
-0.303605399
 20
-2.3148773577
 10
-0.2945170637
 20
-2.3210345706
  0
LWPOLYLINE
  5
B2
330
1F
100
AcDbEntity
  8
0
  6
Continuous
 62
     7
370
    25
100
AcDbPolyline
 90
        9
 70
   128
 43
0.0
 10
-0.6765773653
 20
-3.566180585
 10
-0.6737615964
 20
-3.5976194434
 10
-0.6678885156
 20
-3.6247375277
 10
-0.6591218035
 20
-3.6467790669
 10
-0.6477057851
 20
-3.6631297717
 10
-0.6339586206
 20
-3.6733339539
 10
-0.6182634384
 20
-3.6771072266
 10
-0.6010576575
 20
-3.6743444303
 10
-0.6002275518
 20
-3.6740570971
  0
LWPOLYLINE
  5
B5
330
1F
100
AcDbEntity
  8
0
  6
Continuous
 62
     7
370
    25
100
AcDbPolyline
 90
        6
 70
   128
 43
0.0
 10
-0.4122325699
 20
3.1683750559
 10
-0.4257203208
 20
3.1798434537
 10
-0.4418219104
 20
3.1848353063
 10
-0.4596366692
 20
3.1827050977
 10
-0.4786233047
 20
3.1735175534
 10
-0.4982049176
 20
3.1575518322
  0
SPLINE
  5
C0
330
1F
100
AcDbEntity
  8
0
  6
Continuous
 62
     7
370
    25
100
AcDbSpline
210
0.0
220
0.0
230
1.0
 70
     8
 71
     3
 72
    32
 73
    28
 74
     0
 42
0.000000001
 43
0.00000001
 40
0.0
 40
0.0
 40
0.0
 40
0.0
 40
0.0453417177349525
 40
0.0743019340965694
 40
0.1032540338581508
 40
0.1345942395864128
 40
0.1659604216952695
 40
0.2296149316446217
 40
0.2785905973712183
 40
0.3287319920131523
 40
0.3701725668063639
 40
0.4128586072958784
 40
0.4542850173689301
 40
0.4967137085577598
 40
0.52941512595302
 40
0.5621302026095508
 40
0.629251616918005
 40
0.6635204548988871
 40
0.6977853786321221
 40
0.7330768140105627
 40
0.7683611363484553
 40
0.8016680205081732
 40
0.8349776496296444
 40
0.8694493064258605
 40
0.9039317782405853
 40
0.9518020910805863
 40
0.9999999999999999
 40
0.9999999999999999
 40
0.9999999999999999
 40
0.9999999999999999
 10
-0.9317217315096635
 20
3.053237055294396
 30
0.0
 10
-0.951512927100677
 20
3.047120220086803
 30
0.0
 10
-0.9839449606440867
 20
3.037096500007845
 30
0.0
 10
-1.025329302717513
 20
3.014974267419727
 30
0.0
 10
-1.057105444733951
 20
2.988859303570045
 30
0.0
 10
-1.085183489031799
 20
2.955619816396176
 30
0.0
 10
-1.119077494371465
 20
2.904259768569858
 30
0.0
 10
-1.150072943945197
 20
2.838460057375329
 30
0.0
 10
-1.193137785361712
 20
2.775420279584282
 30
0.0
 10
-1.23689467100862
 20
2.734568943949515
 30
0.0
 10
-1.282832865643581
 20
2.711827862522233
 30
0.0
 10
-1.326915354254564
 20
2.706082961073189
 30
0.0
 10
-1.368319404625516
 20
2.714705099790669
 30
0.0
 10
-1.401327665841553
 20
2.734440108668666
 30
0.0
 10
-1.426430431346946
 20
2.75968017284422
 30
0.0
 10
-1.451170810536162
 20
2.796476919434977
 30
0.0
 10
-1.467112146157139
 20
2.839087113915132
 30
0.0
 10
-1.472780657487819
 20
2.884724480996458
 30
0.0
 10
-1.471270986014584
 20
2.920513944477346
 30
0.0
 10
-1.463345366076543
 20
2.956896618538276
 30
0.0
 10
-1.448808649603412
 20
2.992861757109583
 30
0.0
 10
-1.427544265478851
 20
3.027579699223546
 30
0.0
 10
-1.39986374684984
 20
3.061094623822399
 30
0.0
 10
-1.365735302651031
 20
3.093789465825563
 30
0.0
 10
-1.320982995584394
 20
3.129696028425947
 30
0.0
 10
-1.264925619781766
 20
3.168078596159287
 30
0.0
 10
-1.218740732300528
 20
3.194538611640154
 30
0.0
 10
-1.195569542499089
 20
3.207813734181163
 30
0.0
  0
SPLINE
  5
C1
330
1F
100
AcDbEntity
  8
0
  6
Continuous
 62
     7
370
    25
100
AcDbSpline
210
0.0
220
0.0
230
1.0
 70
     8
 71
     3
 72
     8
 73
     4
 74
     0
 42
0.000000001
 43
0.00000001
 40
0.0
 40
0.0
 40
0.0
 40
0.0
 40
1.0
 40
1.0
 40
1.0
 40
1.0
 10
-1.195569546002032
 20
3.207813732241609
 30
0.0
 10
-1.155861866011392
 20
3.199159247423593
 30
0.0
 10
-1.116709364695481
 20
3.191858541490403
 30
0.0
 10
-1.077001684704842
 20
3.183204056672387
 30
0.0
  0
SPLINE
  5
C2
330
1F
100
AcDbEntity
  8
0
  6
Continuous
 62
     7
370
    25
100
AcDbSpline
210
0.0
220
0.0
230
1.0
 70
     8
 71
     3
 72
    22
 73
    18
 74
     0
 42
0.000000001
 43
0.00000001
 40
0.0
 40
0.0
 40
0.0
 40
0.0
 40
0.0536881854406049
 40
0.1084066292731921
 40
0.1982338841218217
 40
0.2905128850252306
 40
0.3826588328133002
 40
0.4778019672880214
 40
0.5656914481147204
 40
0.655706218329698
 40
0.7197246290327686
 40
0.7852526780141575
 40
0.8328521295922501
 40
0.8815874537047395
 40
0.9292782960641598
 40
0.9782716164921167
 40
1.0
 40
1.0
 40
1.0
 40
1.0
 10
-1.077001713179004
 20
3.183204210816059
 30
0.0
 10
-1.094106252036245
 20
3.1770351014071
 30
0.0
 10
-1.128643560152894
 20
3.164578499434914
 30
0.0
 10
-1.183401630782488
 20
3.137532355029355
 30
0.0
 10
-1.236554179401146
 20
3.101103966441109
 30
0.0
 10
-1.287529534296876
 20
3.056469430568433
 30
0.0
 10
-1.324439416175758
 20
3.008336976585056
 30
0.0
 10
-1.342846850309727
 20
2.959911067598676
 30
0.0
 10
-1.344722812368503
 20
2.913204867011972
 30
0.0
 10
-1.333761523141643
 20
2.874883263257876
 30
0.0
 10
-1.313090829701991
 20
2.845318676561684
 30
0.0
 10
-1.287926902920426
 20
2.827598912476091
 30
0.0
 10
-1.259512876143328
 20
2.818521209960349
 30
0.0
 10
-1.230242049103649
 20
2.817346637254485
 30
0.0
 10
-1.195973790629147
 20
2.826011380758227
 30
0.0
 10
-1.167169230109228
 20
2.837472575584948
 30
0.0
 10
-1.150204020086563
 20
2.849034044222706
 30
0.0
 10
-1.144991665616163
 20
2.852586164865945
 30
0.0
  0
SPLINE
  5
C3
330
1F
100
AcDbEntity
  8
0
  6
Continuous
 62
     7
370
    25
100
AcDbSpline
210
0.0
220
0.0
230
1.0
 70
     8
 71
     3
 72
    12
 73
     8
 74
     0
 42
0.000000001
 43
0.00000001
 40
0.0
 40
0.0
 40
0.0
 40
0.0
 40
0.0797543606275945
 40
0.3016351173991561
 40
0.5314479035854428
 40
0.7613955968292291
 40
1.0
 40
1.0
 40
1.0
 40
1.0
 10
-0.8483429788670892
 20
3.216514662400965
 30
0.0
 10
-0.8434790631076535
 20
3.222427517401557
 30
0.0
 10
-0.8250834821065391
 20
3.244790240871882
 30
0.0
 10
-0.7888712732192786
 20
3.281228121917886
 30
0.0
 10
-0.7388816649165336
 20
3.323408604682154
 30
0.0
 10
-0.6843424739109008
 20
3.361690954391051
 30
0.0
 10
-0.6455642816025196
 20
3.382614729837326
 30
0.0
 10
-0.6258169632091427
 20
3.393269905623844
 30
0.0
  0
LWPOLYLINE
  5
C4
330
1F
100
AcDbEntity
  8
0
  6
Continuous
 62
     7
370
    25
100
AcDbPolyline
 90
        8
 70
   128
 43
0.0
 10
-0.4771510277
 20
3.0785716141
 10
-0.4743848805
 20
3.0793074913
 10
-0.4636235837
 20
3.0792462372
 10
-0.4541912282
 20
3.0742349327
 10
-0.446450294
 20
3.0644661593
 10
-0.4406982611
 20
3.0503153254
 10
-0.4371561766
 20
3.0323262398
 10
-0.4359601611
 20
3.0111902128
  0
LWPOLYLINE
  5
C6
330
1F
100
AcDbEntity
  8
0
  6
Continuous
 62
     7
370
    25
100
AcDbPolyline
 90
        9
 70
   128
 43
0.0
 10
-0.4359601611
 20
1.951355913
 10
-0.4345924381
 20
1.9130351851
 10
-0.430511135
 20
1.8779969751
 10
-0.4237815002
 20
1.8468014437
 10
-0.4145111213
 20
1.819947318
 10
-0.4028482051
 20
1.7978639186
 10
-0.3889792083
 20
1.7809042959
 10
-0.3731258563
 20
1.7693395857
 10
-0.3555415989
 20
1.7633546745
  0
LWPOLYLINE
  5
CD
330
1F
100
AcDbEntity
  8
0
  6
Continuous
 62
     7
370
    25
100
AcDbPolyline
 90
        6
 70
   128
 43
0.0
 10
-0.5640611099
 20
-3.5569075526
 10
-0.5756960572
 20
-3.56624863
 10
-0.5869208645
 20
-3.5712304525
 10
-0.5973398499
 20
-3.5716774075
 10
-0.606585737
 20
-3.5675737395
 10
-0.6108328994
 20
-3.5636685703
  0
LWPOLYLINE
  5
CE
330
1F
100
AcDbEntity
  8
0
  6
Continuous
 62
     7
370
    25
100
AcDbPolyline
 90
       33
 70
   128
 43
0.0
 10
-0.5565418412
 20
-2.7050894282
 10
-0.5707452908
 20
-2.7215217862
 10
-0.5844029098
 20
-2.7424613694
 10
-0.5969898435
 20
-2.7671034814
 10
-0.6080223832
 20
-2.7945011398
 10
-0.6170765545
 20
-2.8236014677
 10
-0.6238044108
 20
-2.8532861559
 10
-0.6279474042
 20
-2.8824144386
 10
-0.6293463219
 20
-2.9098669321
 10
-0.6279474042
 20
-2.9345886526
 10
-0.6238044108
 20
-2.9556295581
 10
-0.6170765545
 20
-2.9721810584
 10
-0.6080223832
 20
-2.9836070888
 10
-0.5969898435
 20
-2.9894685532
 10
-0.5844029098
 20
-2.9895401988
 10
-0.5707452908
 20
-2.9838192724
 10
-0.5565418412
 20
-2.972525626
 10
-0.5423383916
 20
-2.956093268
 10
-0.5286807727
 20
-2.9351536848
 10
-0.5160938389
 20
-2.9105115727
 10
-0.5050612992
 20
-2.8831139144
 10
-0.4960071279
 20
-2.8540135865
 10
-0.4892792716
 20
-2.8243288982
 10
-0.4851362782
 20
-2.7952006155
 10
-0.4837373605
 20
-2.767748122
 10
-0.4851362782
 20
-2.7430264016
 10
-0.4892792716
 20
-2.7219854961
 10
-0.4960071279
 20
-2.7054339957
 10
-0.5050612992
 20
-2.6940079654
 10
-0.5160938389
 20
-2.688146501
 10
-0.5286807727
 20
-2.6880748553
 10
-0.5423383916
 20
-2.6937957817
 10
-0.5565418412
 20
-2.7050894282
  0
LWPOLYLINE
  5
CF
330
1F
100
AcDbEntity
  8
0
  6
Continuous
 62
     7
370
    25
100
AcDbPolyline
 90
       33
 70
   128
 43
0.0
 10
-0.4837373605
 20
2.3752556822
 10
-0.4851362782
 20
2.3478031887
 10
-0.4892792716
 20
2.318674906
 10
-0.4960071279
 20
2.2889902177
 10
-0.5050612992
 20
2.2598898898
 10
-0.5160938389
 20
2.2324922315
 10
-0.5286807727
 20
2.2078501195
 10
-0.5423383916
 20
2.1869105362
 10
-0.5565418412
 20
2.1704781782
 10
-0.5707452908
 20
2.1591845318
 10
-0.5844029098
 20
2.1534636054
 10
-0.5969898435
 20
2.153535251
 10
-0.6080223832
 20
2.1593967154
 10
-0.6170765545
 20
2.1708227458
 10
-0.6238044108
 20
2.1873742461
 10
-0.6279474042
 20
2.2084151516
 10
-0.6293463219
 20
2.2331368721
 10
-0.6279474042
 20
2.2605893656
 10
-0.6238044108
 20
2.2897176483
 10
-0.6170765545
 20
2.3194023365
 10
-0.6080223832
 20
2.3485026645
 10
-0.5969898435
 20
2.3759003228
 10
-0.5844029098
 20
2.4005424348
 10
-0.5707452908
 20
2.4214820181
 10
-0.5565418412
 20
2.437914376
 10
-0.5423383916
 20
2.4492080225
 10
-0.5286807727
 20
2.4549289489
 10
-0.5160938389
 20
2.4548573032
 10
-0.5050612992
 20
2.4489958388
 10
-0.4960071279
 20
2.4375698085
 10
-0.4892792716
 20
2.4210183081
 10
-0.4851362782
 20
2.3999774026
 10
-0.4837373605
 20
2.3752556822
  0
SPLINE
  5
EB
330
1F
100
AcDbEntity
  8
0
  6
Continuous
 62
     7
370
    25
100
AcDbSpline
210
0.0
220
0.0
230
1.0
 70
     8
 71
     3
 72
     9
 73
     5
 74
     0
 42
0.000000001
 43
0.00000001
 40
0.0
 40
0.0
 40
0.0
 40
0.0
 40
0.9881064667800319
 40
1.0
 40
1.0
 40
1.0
 40
1.0
 10
1.401919122615071
 20
-3.006406102770953
 30
0.0
 10
1.404719797341591
 20
-3.000178969713998
 30
0.0
 10
1.407554182927233
 20
-2.993876882574293
 30
0.0
 10
1.406035938533891
 20
-2.98788839930852
 30
0.0
 10
1.406017881243763
 20
-2.987817175083861
 30
0.0
  0
SPLINE
  5
EC
330
1F
100
AcDbEntity
  8
0
  6
Continuous
 62
     7
370
    25
100
AcDbSpline
210
0.0
220
0.0
230
1.0
 70
     8
 71
     3
 72
    14
 73
    10
 74
     0
 42
0.000000001
 43
0.00000001
 40
0.0
 40
0.0
 40
0.0
 40
0.0
 40
0.5
 40
0.5
 40
0.75
 40
0.75
 40
0.875
 40
0.875
 40
1.0
 40
1.0
 40
1.0
 40
1.0
 10
1.401919091916568
 20
-3.006408213103288
 30
0.0
 10
1.409936177703887
 20
-2.539716077209614
 30
0.0
 10
1.415959443097992
 20
-2.074848268167437
 30
0.0
 10
1.421981651869151
 20
-1.38040652264546
 30
0.0
 10
1.42348722938089
 20
-1.149402604563465
 30
0.0
 10
1.424992426219017
 20
-0.8036197028904867
 30
0.0
 10
1.425368642734303
 20
-0.6884793625925327
 30
0.0
 10
1.425870165741479
 20
-0.4584425258942773
 30
0.0
 10
1.425984415363893
 20
-0.3435815269217287
 30
0.0
 10
1.425996406800868
 20
-0.2287667539723385
 30
0.0
  0
SPLINE
  5
ED
330
1F
100
AcDbEntity
  8
0
  6
Continuous
 62
     7
370
    25
100
AcDbSpline
210
0.0
220
0.0
230
1.0
 70
     8
 71
     3
 72
    34
 73
    30
 74
     0
 42
0.000000001
 43
0.00000001
 40
0.0
 40
0.0
 40
0.0
 40
0.0
 40
0.1250000000000003
 40
0.1250000000000003
 40
0.2500000000000006
 40
0.2500000000000006
 40
0.3125000000000006
 40
0.3125000000000006
 40
0.3750000000000006
 40
0.3750000000000006
 40
0.4375000000000006
 40
0.4375000000000006
 40
0.5000000000000006
 40
0.5000000000000006
 40
0.5625000000000004
 40
0.5625000000000004
 40
0.6250000000000004
 40
0.6250000000000004
 40
0.6875000000000003
 40
0.6875000000000003
 40
0.7500000000000002
 40
0.7500000000000002
 40
0.8125000000000002
 40
0.8125000000000002
 40
0.8750000000000001
 40
0.8750000000000001
 40
0.9375000000000001
 40
0.9375000000000001
 40
1.0
 40
1.0
 40
1.0
 40
1.0
 10
1.401919122615082
 20
2.501867908211161
 30
0.0
 10
1.403574779975208
 20
2.507530191225255
 30
0.0
 10
1.405229724036818
 20
2.513176827319836
 30
0.0
 10
1.406491159728317
 20
2.52472672540786
 30
0.0
 10
1.405906546444073
 20
2.530603904540897
 30
0.0
 10
1.40127012283958
 20
2.539366090625431
 30
0.0
 10
1.399131935973115
 20
2.542163759857035
 30
0.0
 10
1.39375072226709
 20
2.547541180190594
 30
0.0
 10
1.390500693385877
 20
2.550153074883991
 30
0.0
 10
1.383397916817443
 20
2.55506024760851
 30
0.0
 10
1.379534086140919
 20
2.557359634291224
 30
0.0
 10
1.371229972529419
 20
2.561684284558611
 30
0.0
 10
1.366747865059876
 20
2.563728441005629
 30
0.0
 10
1.357461925994748
 20
2.567401477909431
 30
0.0
 10
1.352652576988147
 20
2.569045340364118
 30
0.0
 10
1.342642178182748
 20
2.571872551907117
 30
0.0
 10
1.337358479782
 20
2.57306141501891
 30
0.0
 10
1.326767135579928
 20
2.574664759827376
 30
0.0
 10
1.321332997117735
 20
2.575096291021211
 30
0.0
 10
1.310989598372428
 20
2.574875689238137
 30
0.0
 10
1.306014823612271
 20
2.574221755949714
 30
0.0
 10
1.297100047324622
 20
2.571820339976865
 30
0.0
 10
1.293223718802265
 20
2.570081508398746
 30
0.0
 10
1.286507152703846
 20
2.566044850005249
 30
0.0
 10
1.283665397595258
 20
2.563767242777777
 30
0.0
 10
1.279066539406539
 20
2.558669527690101
 30
0.0
 10
1.277433380889978
 20
2.555874954928575
 30
0.0
 10
1.275788987087061
 20
2.550003991192507
 30
0.0
 10
1.275645548294072
 20
2.546917092142349
 30
0.0
 10
1.275562185487111
 20
2.543838101682236
 30
0.0
  0
SPLINE
  5
F8
330
1F
100
AcDbEntity
  8
0
  6
Continuous
 62
     7
370
    25
100
AcDbSpline
210
0.0
220
0.0
230
1.0
 70
     8
 71
     3
 72
    52
 73
    48
 74
     0
 42
0.000000001
 43
0.00000001
 40
0.0
 40
0.0
 40
0.0
 40
0.0
 40
0.0624999999999992
 40
0.0624999999999992
 40
0.0937499999999991
 40
0.0937499999999991
 40
0.1249999999999989
 40
0.1249999999999989
 40
0.1874999999999979
 40
0.1874999999999979
 40
0.2187499999999974
 40
0.2187499999999974
 40
0.2499999999999969
 40
0.2499999999999969
 40
0.3124999999999959
 40
0.3124999999999959
 40
0.3281249999999957
 40
0.3281249999999957
 40
0.3437499999999954
 40
0.3437499999999954
 40
0.3749999999999953
 40
0.3749999999999953
 40
0.4062499999999953
 40
0.4062499999999953
 40
0.4374999999999952
 40
0.4374999999999952
 40
0.4999999999999953
 40
0.4999999999999953
 40
0.5624999999999956
 40
0.5624999999999956
 40
0.6249999999999958
 40
0.6249999999999958
 40
0.656249999999996
 40
0.656249999999996
 40
0.6874999999999963
 40
0.6874999999999963
 40
0.749999999999997
 40
0.749999999999997
 40
0.7812499999999973
 40
0.7812499999999973
 40
0.8124999999999978
 40
0.8124999999999978
 40
0.8749999999999984
 40
0.8749999999999984
 40
0.9374999999999992
 40
0.9374999999999992
 40
1.0
 40
1.0
 40
1.0
 40
1.0
 10
-0.0323042846271681
 20
-3.984794423149161
 30
0.0
 10
0.0033332003743101
 20
-3.96724356495775
 30
0.0
 10
0.0400743682600108
 20
-3.950963385943266
 30
0.0
 10
0.0905451245273007
 20
-3.921328013570273
 30
0.0
 10
0.1064902126918211
 20
-3.910463868663888
 30
0.0
 10
0.1361911836961263
 20
-3.886258750036352
 30
0.0
 10
0.1500993475623228
 20
-3.872896793545404
 30
0.0
 10
0.1885767777980444
 20
-3.830953689832268
 30
0.0
 10
0.210079029952963
 20
-3.800414229629065
 30
0.0
 10
0.2395985670104336
 20
-3.7526158877778
 30
0.0
 10
0.2490156248225902
 20
-3.736370726554499
 30
0.0
 10
0.268436002447271
 20
-3.70408337491838
 30
0.0
 10
0.2784607859836739
 20
-3.688018609802918
 30
0.0
 10
0.3111621081159858
 20
-3.641514713312215
 30
0.0
 10
0.3362063844742215
 20
-3.612564478689219
 30
0.0
 10
0.372459359046776
 20
-3.578908869163938
 30
0.0
 10
0.3799640981577158
 20
-3.572308583007952
 30
0.0
 10
0.3955371091529508
 20
-3.559387835008257
 30
0.0
 10
0.4036270621052664
 20
-3.553057087466121
 30
0.0
 10
0.4284526792115163
 20
-3.534764894735873
 30
0.0
 10
0.445824030611555
 20
-3.523403927900192
 30
0.0
 10
0.4821882575180615
 20
-3.502188330636068
 30
0.0
 10
0.5011852873114956
 20
-3.492337273863248
 30
0.0
 10
0.5406553155482303
 20
-3.473767008217961
 30
0.0
 10
0.5611730274990111
 20
-3.465037212404803
 30
0.0
 10
0.6231662089694755
 20
-3.440737758577164
 30
0.0
 10
0.6656351149979838
 20
-3.426892362919411
 30
0.0
 10
0.7516534192773111
 20
-3.400764508648384
 30
0.0
 10
0.7939537973951967
 20
-3.388890350608915
 30
0.0
 10
0.8767533470142467
 20
-3.365015567842684
 30
0.0
 10
0.9173101301346006
 20
-3.352892221519705
 30
0.0
 10
0.9766403420790937
 20
-3.333419039301943
 30
0.0
 10
0.9961096299212086
 20
-3.326730276171714
 30
0.0
 10
1.033919296987774
 20
-3.312988915688591
 30
0.0
 10
1.05232760462908
 20
-3.3059146288573
 30
0.0
 10
1.105992915013586
 20
-3.283892918136175
 30
0.0
 10
1.139709923883247
 20
-3.268131889382579
 30
0.0
 10
1.186746376975541
 20
-3.242484894812893
 30
0.0
 10
1.201910250889095
 20
-3.233545264768809
 30
0.0
 10
1.230403308326278
 20
-3.215219765346748
 30
0.0
 10
1.243735581525109
 20
-3.205831327759575
 30
0.0
 10
1.281010896020037
 20
-3.176970269613278
 30
0.0
 10
1.302344370503403
 20
-3.156841990966558
 30
0.0
 10
1.33945087013094
 20
-3.115217572773751
 30
0.0
 10
1.355240143708342
 20
-3.093645616349377
 30
0.0
 10
1.381860249832437
 20
-3.050293761889625
 30
0.0
 10
1.392793608246684
 20
-3.028412854221413
 30
0.0
 10
1.401919057367556
 20
-3.006410281732712
 30
0.0
  0
SPLINE
  5
F9
330
1F
100
AcDbEntity
  8
0
  6
Continuous
 62
     7
370
    25
100
AcDbSpline
210
0.0
220
0.0
230
1.0
 70
     8
 71
     3
 72
    34
 73
    30
 74
     0
 42
0.000000001
 43
0.00000001
 40
0.0
 40
0.0
 40
0.0
 40
0.0
 40
0.125
 40
0.125
 40
0.2500000000000001
 40
0.2500000000000001
 40
0.3125
 40
0.3125
 40
0.3749999999999999
 40
0.3749999999999999
 40
0.4374999999999999
 40
0.4374999999999999
 40
0.4999999999999999
 40
0.4999999999999999
 40
0.5624999999999999
 40
0.5624999999999999
 40
0.6249999999999999
 40
0.6249999999999999
 40
0.6874999999999999
 40
0.6874999999999999
 40
0.7499999999999999
 40
0.7499999999999999
 40
0.8125
 40
0.8125
 40
0.875
 40
0.875
 40
0.9375
 40
0.9375
 40
1.0
 40
1.0
 40
1.0
 40
1.0
 10
-1.195569501598112
 20
3.207809658823586
 30
0.0
 10
-1.187749799591664
 20
3.211796686582309
 30
0.0
 10
-1.179929257952113
 20
3.215767645367985
 30
0.0
 10
-1.162946454938929
 20
3.223044812686126
 30
0.0
 10
-1.15373404560157
 20
3.226259370995416
 30
0.0
 10
-1.138325937698016
 20
3.229573882918416
 30
0.0
 10
-1.133115792446162
 20
3.23037443293597
 30
0.0
 10
-1.122558305446812
 20
3.231420055942854
 30
0.0
 10
-1.117158933075832
 20
3.231681228710153
 30
0.0
 10
-1.106609922946997
 20
3.23179102404239
 30
0.0
 10
-1.101449212697529
 20
3.231637733873943
 30
0.0
 10
-1.091339368026255
 20
3.230957864843472
 30
0.0
 10
-1.086344312122222
 20
3.2304263313566
 30
0.0
 10
-1.076896646402219
 20
3.229007975892398
 30
0.0
 10
-1.072418481365905
 20
3.228127691037571
 30
0.0
 10
-1.06403788154514
 20
3.225956623225411
 30
0.0
 10
-1.060094232711857
 20
3.224637691077129
 30
0.0
 10
-1.053384449732703
 20
3.22153896023605
 30
0.0
 10
-1.050540856454738
 20
3.21972078131325
 30
0.0
 10
-1.046673672395263
 20
3.215638047619792
 30
0.0
 10
-1.045624882269837
 20
3.213347038464851
 30
0.0
 10
-1.045526862995521
 20
3.208496137779109
 30
0.0
 10
-1.046490633028054
 20
3.205965735212037
 30
0.0
 10
-1.049609871002968
 20
3.200951400115987
 30
0.0
 10
-1.05173569246273
 20
3.198479217463365
 30
0.0
 10
-1.057176271167317
 20
3.193610263976013
 30
0.0
 10
-1.060505599399053
 20
3.191276673798546
 30
0.0
 10
-1.068246019487079
 20
3.187062479384728
 30
0.0
 10
-1.072617778701634
 20
3.185124747223209
 30
0.0
 10
-1.077002366165604
 20
3.183214737460775
 30
0.0
  0
SPLINE
  5
FA
330
1F
100
AcDbEntity
  8
0
  6
Continuous
 62
     7
370
    25
100
AcDbSpline
210
0.0
220
0.0
230
1.0
 70
     8
 71
     3
 72
    24
 73
    20
 74
     0
 42
0.000000001
 43
0.00000001
 40
0.0
 40
0.0
 40
0.0
 40
0.0
 40
0.0662170496786987
 40
0.1092510217707074
 40
0.1522729328499474
 40
0.1988434944033471
 40
0.2454526560425883
 40
0.3400412589206253
 40
0.4128175602348588
 40
0.4873260981105508
 40
0.5489054909182337
 40
0.6123356066399648
 40
0.6738939511182966
 40
0.7369416538606033
 40
0.7855349332058379
 40
0.8341485097843864
 40
0.9338888236709237
 40
0.98481124078554
 40
1.0
 40
1.0
 40
1.0
 40
1.0
 10
-0.9327263587241922
 20
-3.723975105864997
 30
0.0
 10
-0.9521750097955617
 20
-3.699893326834098
 30
0.0
 10
-0.9842631957222842
 20
-3.660160977266304
 30
0.0
 10
-1.02532809738218
 20
-3.600648636805636
 30
0.0
 10
-1.057105796886756
 20
-3.545945236767192
 30
0.0
 10
-1.085183393711062
 20
-3.487806761825202
 30
0.0
 10
-1.119077550110533
 20
-3.406416695747563
 30
0.0
 10
-1.150072933466576
 20
-3.312451059783561
 30
0.0
 10
-1.193137777985962
 20
-3.206420848525348
 30
0.0
 10
-1.236894709283982
 20
-3.116590284758277
 30
0.0
 10
-1.282832746506819
 20
-3.034898262340726
 30
0.0
 10
-1.326915811693186
 20
-2.963912214448945
 30
0.0
 10
-1.368317737286748
 20
-2.89799179111857
 30
0.0
 10
-1.401333441415284
 20
-2.842620375382839
 30
0.0
 10
-1.426414302793277
 20
-2.794841194292887
 30
0.0
 10
-1.451258504532766
 20
-2.739148539686339
 30
0.0
 10
-1.4665450386349
 20
-2.685381340320952
 30
0.0
 10
-1.472491268796735
 20
-2.641677581074797
 30
0.0
 10
-1.471563364378998
 20
-2.624626744232974
 30
0.0
 10
-1.471350182318753
 20
-2.620709387598652
 30
0.0
  0
LWPOLYLINE
  5
11E
330
1F
100
AcDbEntity
  8
0
  6
Continuous
 62
     8
370
    25
100
AcDbPolyline
 90
        7
 70
   128
 43
0.0
 10
-0.6765773653
 20
2.7901174906
 10
-0.6605041584
 20
2.7909541104
 10
-0.6456921451
 20
2.7937117756
 10
-0.6331507398
 20
2.7982025559
 10
-0.6237346184
 20
2.8041204118
 10
-0.6180854742
 20
2.8110620515
 10
-0.6165445368
 20
2.8171105387
  0
LWPOLYLINE
  5
11F
330
1F
100
AcDbEntity
  8
0
  6
Continuous
 62
     8
370
    25
100
AcDbPolyline
 90
        8
 70
   128
 43
0.0
 10
-0.5640611099
 20
3.0932741696
 10
-0.552613048
 20
3.0816490912
 10
-0.5438286412
 20
3.0681663551
 10
-0.5383065322
 20
3.0537447875
 10
-0.5364230436
 20
3.0393671943
 10
-0.5383065322
 20
3.0260133847
 10
-0.5438286412
 20
3.0145933988
 10
-0.5481588951
 20
3.0095517418
  0
SPLINE
  5
120
330
1F
100
AcDbEntity
  8
0
  6
Continuous
 62
     8
370
    25
100
AcDbSpline
210
0.0
220
0.0
230
1.0
 70
     8
 71
     3
 72
    36
 73
    32
 74
     0
 42
0.000000001
 43
0.00000001
 40
0.0
 40
0.0
 40
0.0
 40
0.0
 40
0.0538548789346413
 40
0.072818498840615
 40
0.0909402453751181
 40
0.108219504797339
 40
0.1246557167889878
 40
0.1402484055923585
 40
0.1549971982344381
 40
0.1689018192187868
 40
0.2245855516780731
 40
0.2788962920237671
 40
0.3318192155961122
 40
0.3833537944376758
 40
0.4054171917166375
 40
0.4288312478124987
 40
0.4535991925420985
 40
0.479727011816833
 40
0.5072208656136683
 40
0.5360855287916783
 40
0.5663232396006717
 40
0.5979323417685568
 40
0.6797831796485636
 40
0.7426504724143573
 40
0.7866010395402817
 40
0.7970636321912812
 40
0.8054331762118536
 40
0.8117094562843031
 40
0.8700072606870428
 40
0.941328739199507
 40
1.0
 40
1.0
 40
1.0
 40
1.0
 10
-1.463303820770881
 20
0.127000161547134
 30
0.0
 10
-1.463081213176355
 20
0.1167705383295173
 30
0.0
 10
-1.462780220003879
 20
0.1029388146092583
 30
0.0
 10
-1.460455358010854
 20
0.0857086858941864
 30
0.0
 10
-1.458745743959731
 20
0.0754230639115439
 30
0.0
 10
-1.456759820015707
 20
0.065632743775629
 30
0.0
 10
-1.454567559271817
 20
0.0563380881077416
 30
0.0
 10
-1.452212330701137
 20
0.0475389000151363
 30
0.0
 10
-1.449740351593796
 20
0.0392341966307252
 30
0.0
 10
-1.444591219147468
 20
0.0234407414815525
 30
0.0
 10
-1.435472289207858
 20
0.0003720159498969
 30
0.0
 10
-1.420310945233149
 20
-0.029578368336805
 30
0.0
 10
-1.402558821495707
 20
-0.0583201931192072
 30
0.0
 10
-1.386024186154666
 20
-0.0807979964595623
 30
0.0
 10
-1.372025475079226
 20
-0.0977523862254274
 30
0.0
 10
-1.361292575757831
 20
-0.1098947877959728
 30
0.0
 10
-1.34925767060904
 20
-0.1225740315310168
 30
0.0
 10
-1.335808024232857
 20
-0.1357520734586601
 30
0.0
 10
-1.320869074952351
 20
-0.1493975719806484
 30
0.0
 10
-1.304365868859084
 20
-0.1634760311210192
 30
0.0
 10
-1.286233421397119
 20
-0.177951764697557
 30
0.0
 10
-1.256199656489476
 20
-0.2004339363779804
 30
0.0
 10
-1.216606088785411
 20
-0.2270254075186786
 30
0.0
 10
-1.171079017826853
 20
-0.2541225566638141
 30
0.0
 10
-1.14164131203514
 20
-0.2704427305332994
 30
0.0
 10
-1.125679741482979
 20
-0.2790808060845618
 30
0.0
 10
-1.119270409429907
 20
-0.2825226893545931
 30
0.0
 10
-1.100597266475508
 20
-0.2924928500148966
 30
0.0
 10
-1.065422224979594
 20
-0.3108566353949632
 30
0.0
 10
-1.016265602264862
 20
-0.3361092417258291
 30
0.0
 10
-0.9815260918112705
 20
-0.3531203963217207
 30
0.0
 10
-0.9658466708784049
 20
-0.3607982550474315
 30
0.0
  0
LWPOLYLINE
  5
121
330
1F
100
AcDbEntity
  8
0
  6
Continuous
 62
     8
370
    25
100
AcDbPolyline
 90
        7
 70
   128
 43
0.0
 10
-0.6982265584
 20
2.1725495535
 10
-0.6821533515
 20
2.1733861734
 10
-0.6673413382
 20
2.1761438386
 10
-0.6547999329
 20
2.1806346188
 10
-0.6453838115
 20
2.1865524748
 10
-0.6397346673
 20
2.1934941144
 10
-0.6381983117
 20
2.1993857154
  0
LWPOLYLINE
  5
122
330
1F
100
AcDbEntity
  8
0
  6
Continuous
 62
     8
370
    25
100
AcDbPolyline
 90
        8
 70
   128
 43
0.0
 10
-0.4982049176
 20
3.1575518322
 10
-0.4867568557
 20
3.1459267539
 10
-0.4779724488
 20
3.1324440178
 10
-0.4724503398
 20
3.1180224501
 10
-0.4705668513
 20
3.1036448569
 10
-0.4724503398
 20
3.0902910473
 10
-0.4779724488
 20
3.0788710615
 10
-0.482188099
 20
3.0739407645
  0
LWPOLYLINE
  5
123
330
1F
100
AcDbEntity
  8
0
  6
Continuous
 62
     8
370
    25
100
AcDbPolyline
 90
        7
 70
   128
 43
0.0
 10
-0.3758376404
 20
3.043319519
 10
-0.377395601
 20
3.036214219
 10
-0.3830614659
 20
3.0283339268
 10
-0.3924943078
 20
3.0214774182
 10
-0.4050512943
 20
3.0161119531
 10
-0.4198766874
 20
3.0126031788
 10
-0.4359601611
 20
3.0111902128
  0
LWPOLYLINE
  5
124
330
1F
100
AcDbEntity
  8
0
  6
Continuous
 62
     8
370
    25
100
AcDbPolyline
 90
        7
 70
   128
 43
0.0
 10
-0.6383547662
 20
2.1908784542
 10
-0.6399117573
 20
2.1835527417
 10
-0.6455776221
 20
2.1756724495
 10
-0.6550104641
 20
2.168815941
 10
-0.6675674506
 20
2.1634504758
 10
-0.6823928437
 20
2.1599417016
 10
-0.6984763174
 20
2.1585287355
  0
LWPOLYLINE
  5
125
330
1F
100
AcDbEntity
  8
0
  6
Continuous
 62
     8
370
    25
100
AcDbPolyline
 90
        7
 70
   128
 43
0.0
 10
-0.6984763174
 20
-2.977339927
 10
-0.6823928437
 20
-2.9759269609
 10
-0.6675674506
 20
-2.9724181867
 10
-0.6550104641
 20
-2.9670527215
 10
-0.6455776221
 20
-2.960196213
 10
-0.6399117573
 20
-2.9523159208
 10
-0.6383537547
 20
-2.9451733446
  0
LWPOLYLINE
  5
126
330
1F
100
AcDbEntity
  8
0
  6
Continuous
 62
     8
370
    25
100
AcDbPolyline
 90
        7
 70
   128
 43
0.0
 10
-0.3758375985
 20
1.9835224954
 10
-0.377395601
 20
1.9763799192
 10
-0.3830614659
 20
1.968499627
 10
-0.3924943078
 20
1.9616431185
 10
-0.4050512943
 20
1.9562776533
 10
-0.4198766874
 20
1.9527688791
 10
-0.4359601611
 20
1.951355913
  0
LWPOLYLINE
  5
12A
330
1F
100
AcDbEntity
  8
0
  6
Continuous
 62
     8
370
    25
100
AcDbPolyline
 90
        7
 70
   128
 43
0.0
 10
-0.3758386573
 20
-2.2253655143
 10
-0.377395601
 20
-2.2326954656
 10
-0.3830614659
 20
-2.2405757578
 10
-0.3924943078
 20
-2.2474322664
 10
-0.4050512943
 20
-2.2527977315
 10
-0.4198766874
 20
-2.2563065058
 10
-0.4359601611
 20
-2.2577194718
  0
LWPOLYLINE
  5
12B
330
1F
100
AcDbEntity
  8
0
  6
Continuous
 62
     8
370
    25
100
AcDbPolyline
 90
        7
 70
   128
 43
0.0
 10
-0.3133001159
 20
-1.9582379543
 10
-0.3123977653
 20
-1.9538647962
 10
-0.314515426
 20
-1.9465238412
 10
-0.3204000639
 20
-1.9381591025
 10
-0.3296506505
 20
-1.9293406232
 10
-0.3416367737
 20
-1.9206693682
 10
-0.3555415989
 20
-1.9127362692
  0
LWPOLYLINE
  5
12C
330
1F
100
AcDbEntity
  8
0
  6
Continuous
 62
     8
370
    25
100
AcDbPolyline
 90
        7
 70
   128
 43
0.0
 10
-0.6382123271
 20
-2.9531322711
 10
-0.6397346673
 20
-2.9619116029
 10
-0.6453838115
 20
-2.970697908
 10
-0.6547999329
 20
-2.9784604295
 10
-0.6673413382
 20
-2.9846701643
 10
-0.6821533515
 20
-2.9889039292
 10
-0.6982265584
 20
-2.9908732003
  0
LWPOLYLINE
  5
12D
330
1F
100
AcDbEntity
  8
0
  6
Continuous
 62
     8
370
    25
100
AcDbPolyline
 90
        7
 70
   128
 43
0.0
 10
-0.6765773653
 20
-3.566180585
 10
-0.6605041584
 20
-3.564211314
 10
-0.6456921451
 20
-3.559977549
 10
-0.6331507398
 20
-3.5537678142
 10
-0.6237346184
 20
-3.5460052928
 10
-0.6180854742
 20
-3.5372189877
 10
-0.6165549562
 20
-3.528632172
  0
LWPOLYLINE
  5
12E
330
1F
100
AcDbEntity
  8
0
  6
Continuous
 62
     8
370
    25
100
AcDbPolyline
 90
        7
 70
   128
 43
0.0
 10
-0.3758375985
 20
-3.2853871892
 10
-0.377395601
 20
-3.2925297654
 10
-0.3830614659
 20
-3.3004100576
 10
-0.3924943078
 20
-3.3072665661
 10
-0.4050512943
 20
-3.3126320313
 10
-0.4198766874
 20
-3.3161408055
 10
-0.4359601611
 20
-3.3175537716
  0
LINE
  5
131
330
1F
100
AcDbEntity
  8
0
  6
Continuous
 62
     7
370
    25
100
AcDbLine
 10
-0.6381983117
 20
2.1993857154
 30
0.0
 11
-0.6165491186
 21
2.8169536524
 31
0.0
  0
LINE
  5
132
330
1F
100
AcDbEntity
  8
0
  6
Continuous
 62
     7
370
    25
100
AcDbLine
 10
-0.5480442913
 20
3.0096631019
 30
0.0
 11
-0.482188099
 21
3.0739407645
 31
0.0
  0
LINE
  5
133
330
1F
100
AcDbEntity
  8
0
  6
Continuous
 62
     7
370
    25
100
AcDbLine
 10
-0.6382296961
 20
2.190848228
 30
0.0
 11
-0.6380869461
 21
2.1995181026
 31
0.0
  0
LINE
  5
134
330
1F
100
AcDbEntity
  8
0
  6
Continuous
 62
     7
370
    25
100
AcDbLine
 10
-0.6383537547
 20
-2.9451733446
 30
0.0
 11
-0.6383537547
 21
2.190695318
 31
0.0
  0
LINE
  5
135
330
1F
100
AcDbEntity
  8
0
  6
Continuous
 62
     7
370
    25
100
AcDbLine
 10
-0.3758375985
 20
1.9835224954
 30
0.0
 11
-0.3758375985
 21
3.0433567952
 31
0.0
  0
LINE
  5
136
330
1F
100
AcDbEntity
  8
0
  6
Continuous
 62
     7
370
    25
100
AcDbLine
 10
-0.2866708283
 20
1.9617607657
 30
0.0
 11
-0.2846594365
 21
1.9612141125
 31
0.0
  0
LINE
  5
137
330
1F
100
AcDbEntity
  8
0
  6
Continuous
 62
     7
370
    25
100
AcDbLine
 10
0.5501797304
 20
2.6185422816
 30
0.0
 11
0.4605849543
 21
2.6428922219
 31
0.0
  0
LINE
  5
138
330
1F
100
AcDbEntity
  8
0
  6
Continuous
 62
     7
370
    25
100
AcDbLine
 10
-0.2691234626
 20
2.8412113339
 30
0.0
 11
-0.3216549044
 21
2.8554882541
 31
0.0
  0
LINE
  5
139
330
1F
100
AcDbEntity
  8
0
  6
Continuous
 62
     7
370
    25
100
AcDbLine
 10
-0.6165549562
 20
-3.528632172
 30
0.0
 11
-0.6382041493
 21
-2.9533247872
 31
0.0
  0
LINE
  5
13A
330
1F
100
AcDbEntity
  8
0
  6
Continuous
 62
     7
370
    25
100
AcDbLine
 10
-0.3132454497
 20
-1.9581240372
 30
0.0
 11
-0.2982994696
 21
-1.9263794941
 31
0.0
  0
LINE
  5
13B
330
1F
100
AcDbEntity
  8
0
  6
Continuous
 62
     7
370
    25
100
AcDbLine
 10
-0.3758375985
 20
-3.2853871892
 30
0.0
 11
-0.3758375985
 21
-2.2255528894
 31
0.0
  0
LINE
  5
13C
330
1F
100
AcDbEntity
  8
0
  6
Continuous
 62
     7
370
    25
100
AcDbLine
 10
-0.5480442913
 20
-3.6405186203
 30
0.0
 11
-0.482188099
 21
-3.5762409576
 31
0.0
  0
LINE
  5
13D
330
1F
100
AcDbEntity
  8
0
  6
Continuous
 62
     7
370
    25
100
AcDbLine
 10
0.3162110068
 20
3.1855014634
 30
0.0
 11
-0.0323042846
 21
2.8181493843
 31
0.0
  0
LINE
  5
13E
330
1F
100
AcDbEntity
  8
0
  6
Continuous
 62
     7
370
    25
100
AcDbLine
 10
0.3307855367
 20
3.2265199582
 30
0.0
 11
0.3322812544
 21
3.1562288422
 31
0.0
  0
LINE
  5
13F
330
1F
100
AcDbEntity
  8
0
  6
Continuous
 62
     7
370
    25
100
AcDbLine
 10
0.47903466
 20
2.5676213029
 30
0.0
 11
0.5173965814
 21
2.6050637143
 31
0.0
  0
LINE
  5
140
330
1F
100
AcDbEntity
  8
0
  6
Continuous
 62
     7
370
    25
100
AcDbLine
 10
0.5756895339
 20
2.5589728164
 30
0.0
 11
0.5793523131
 21
2.383049589
 31
0.0
  0
LINE
  5
141
330
1F
100
AcDbEntity
  8
0
  6
Continuous
 62
     7
370
    25
100
AcDbLine
 10
1.2762085875
 20
2.497637888
 30
0.0
 11
1.2755622826
 21
2.543832951
 31
0.0
  0
LINE
  5
142
330
1F
100
AcDbEntity
  8
0
  6
Continuous
 62
     7
370
    25
100
AcDbLine
 10
-0.268108911
 20
2.8910904128
 30
0.0
 11
-0.0470043806
 21
2.8309989391
 31
0.0
  0
LINE
  5
143
330
1F
100
AcDbEntity
  8
0
  6
Continuous
 62
     7
370
    25
100
AcDbLine
 10
-0.268108911
 20
-3.9662479929
 30
0.0
 11
-0.0470043806
 21
-4.0263394665
 31
0.0
  0
LINE
  5
144
330
1F
100
AcDbEntity
  8
0
  6
Continuous
 62
     7
370
    25
100
AcDbLine
 10
0.1096810063
 20
3.2866114319
 30
0.0
 11
0.3307855367
 21
3.2265199582
 31
0.0
  0
LINE
  5
145
330
1F
100
AcDbEntity
  8
0
  6
Continuous
 62
     7
370
    25
100
AcDbLine
 10
-0.3325280545
 20
-3.5041169827
 30
0.0
 11
-0.3192820993
 21
-2.791436617
 31
0.0
  0
LINE
  5
146
330
1F
100
AcDbEntity
  8
0
  6
Continuous
 62
     7
370
    25
100
AcDbLine
 10
-0.3192820993
 20
2.7199709304
 30
0.0
 11
-0.3325280545
 21
3.4067943793
 31
0.0
  0
LINE
  5
147
330
1F
100
AcDbEntity
  8
0
  6
Continuous
 62
     7
370
    25
100
AcDbLine
 10
-0.6982265584
 20
-2.9908732003
 30
0.0
 11
-0.6765773653
 21
-3.566180585
 31
0.0
  0
LINE
  5
148
330
1F
100
AcDbEntity
  8
0
  6
Continuous
 62
     7
370
    25
100
AcDbLine
 10
-0.2861455648
 20
1.8608498126
 30
0.0
 11
-0.3287653858
 21
1.8681757597
 31
0.0
  0
LINE
  5
149
330
1F
100
AcDbEntity
  8
0
  6
Continuous
 62
     7
370
    25
100
AcDbLine
 10
-0.4982049176
 20
3.1575518322
 30
0.0
 11
-0.5640611099
 21
3.0932741696
 31
0.0
  0
LINE
  5
14A
330
1F
100
AcDbEntity
  8
0
  6
Continuous
 62
     7
370
    25
100
AcDbLine
 10
-0.6765773653
 20
2.7901174906
 30
0.0
 11
-0.6982265584
 21
2.1725495535
 31
0.0
  0
LINE
  5
14B
330
1F
100
AcDbEntity
  8
0
  6
Continuous
 62
     7
370
    25
100
AcDbLine
 10
-0.6984763174
 20
2.1585287355
 30
0.0
 11
-0.6984763174
 21
-2.977339927
 31
0.0
  0
LINE
  5
14C
330
1F
100
AcDbEntity
  8
0
  6
Continuous
 62
     7
370
    25
100
AcDbLine
 10
-0.7103179719
 20
-3.8460650455
 30
0.0
 11
-0.9314225023
 21
-3.7859735718
 31
0.0
  0
LINE
  5
14D
330
1F
100
AcDbEntity
  8
0
  6
Continuous
 62
     7
370
    25
100
AcDbLine
 10
-0.7103179719
 20
3.0112733601
 30
0.0
 11
-0.9314225023
 21
3.0713648338
 31
0.0
  0
LINE
  5
14E
330
1F
100
AcDbEntity
  8
0
  6
Continuous
 62
     7
370
    25
100
AcDbLine
 10
-0.3325280545
 20
3.4067943793
 30
0.0
 11
-0.5536325849
 21
3.4668858529
 31
0.0
  0
LINE
  5
14F
330
1F
100
AcDbEntity
  8
0
  6
Continuous
 62
     7
370
    25
100
AcDbLine
 10
-0.4359601611
 20
3.0111902128
 30
0.0
 11
-0.4359601611
 21
1.951355913
 31
0.0
  0
LINE
  5
150
330
1F
100
AcDbEntity
  8
0
  6
Continuous
 62
     7
370
    25
100
AcDbLine
 10
-0.3555415989
 20
1.7633546745
 30
0.0
 11
-0.2876950766
 21
1.7516924943
 31
0.0
  0
LINE
  5
151
330
1F
100
AcDbEntity
  8
0
  6
Continuous
 62
     7
370
    25
100
AcDbLine
 10
-0.2993545644
 20
-1.7933977093
 30
0.0
 11
-0.3555415989
 21
-1.9127362692
 31
0.0
  0
LINE
  5
152
330
1F
100
AcDbEntity
  8
0
  6
Continuous
 62
     7
370
    25
100
AcDbLine
 10
-0.4359601611
 20
-2.2577194718
 30
0.0
 11
-0.4359601611
 21
-3.3175537716
 31
0.0
  0
LINE
  5
153
330
1F
100
AcDbEntity
  8
0
  6
Continuous
 62
     7
370
    25
100
AcDbLine
 10
-0.4982049176
 20
-3.4926298899
 30
0.0
 11
-0.5640611099
 21
-3.5569075526
 31
0.0
  0
LINE
  5
154
330
1F
100
AcDbEntity
  8
0
  6
Continuous
 62
     7
370
    25
100
AcDbLine
 10
-1.0770021331
 20
3.1832095498
 30
0.0
 11
-1.0738517922
 21
2.9673805315
 31
0.0
  0
LINE
  5
155
330
1F
100
AcDbEntity
  8
0
  6
Continuous
 62
     7
370
    25
100
AcDbLine
 10
-0.5279103653
 20
2.3499705552
 30
0.0
 11
-0.5089861536
 21
2.368441166
 31
0.0
  0
LINE
  5
156
330
1F
100
AcDbEntity
  8
0
  6
Continuous
 62
     7
370
    25
100
AcDbLine
 10
-0.5279103653
 20
2.3499705552
 30
0.0
 11
-0.5412918038
 21
2.3470901288
 31
0.0
  0
LINE
  5
157
330
1F
100
AcDbEntity
  8
0
  6
Continuous
 62
     7
370
    25
100
AcDbLine
 10
-0.5412918038
 20
2.3470901288
 30
0.0
 11
-0.5468345771
 21
2.3662575526
 31
0.0
  0
LINE
  5
158
330
1F
100
AcDbEntity
  8
0
  6
Continuous
 62
     7
370
    25
100
AcDbLine
 10
-0.5468345771
 20
2.4010151609
 30
0.0
 11
-0.5468345771
 21
2.3662575526
 31
0.0
  0
LINE
  5
159
330
1F
100
AcDbEntity
  8
0
  6
Continuous
 62
     7
370
    25
100
AcDbLine
 10
-0.5662491053
 20
2.3473083779
 30
0.0
 11
-0.5662491053
 21
2.3820659863
 31
0.0
  0
LINE
  5
15A
330
1F
100
AcDbEntity
  8
0
  6
Continuous
 62
     7
370
    25
100
AcDbLine
 10
-0.5717918786
 20
2.3173211208
 30
0.0
 11
-0.5662491053
 21
2.3473083779
 31
0.0
  0
LINE
  5
15B
330
1F
100
AcDbEntity
  8
0
  6
Continuous
 62
     7
370
    25
100
AcDbLine
 10
-0.5717918786
 20
2.3173211208
 30
0.0
 11
-0.5851733171
 21
2.2940801588
 31
0.0
  0
LINE
  5
15C
330
1F
100
AcDbEntity
  8
0
  6
Continuous
 62
     7
370
    25
100
AcDbLine
 10
-0.6040975288
 20
2.275609548
 30
0.0
 11
-0.5851733171
 21
2.2940801588
 31
0.0
  0
LINE
  5
15D
330
1F
100
AcDbEntity
  8
0
  6
Continuous
 62
     7
370
    25
100
AcDbLine
 10
-0.5851733171
 20
2.2584219991
 30
0.0
 11
-0.6040975288
 21
2.2399513883
 31
0.0
  0
LINE
  5
15E
330
1F
100
AcDbEntity
  8
0
  6
Continuous
 62
     7
370
    25
100
AcDbLine
 10
-0.5851733171
 20
2.2584219991
 30
0.0
 11
-0.5717918786
 21
2.2613024255
 31
0.0
  0
LINE
  5
15F
330
1F
100
AcDbEntity
  8
0
  6
Continuous
 62
     7
370
    25
100
AcDbLine
 10
-0.5717918786
 20
2.2613024255
 30
0.0
 11
-0.5662491053
 21
2.2421350016
 31
0.0
  0
LINE
  5
160
330
1F
100
AcDbEntity
  8
0
  6
Continuous
 62
     7
370
    25
100
AcDbLine
 10
-0.5662491053
 20
2.2073773933
 30
0.0
 11
-0.5662491053
 21
2.2421350016
 31
0.0
  0
LINE
  5
161
330
1F
100
AcDbEntity
  8
0
  6
Continuous
 62
     7
370
    25
100
AcDbLine
 10
-0.5468345771
 20
2.2610841763
 30
0.0
 11
-0.5468345771
 21
2.226326568
 31
0.0
  0
LINE
  5
162
330
1F
100
AcDbEntity
  8
0
  6
Continuous
 62
     7
370
    25
100
AcDbLine
 10
-0.5468345771
 20
2.2610841763
 30
0.0
 11
-0.5412918038
 21
2.2910714335
 31
0.0
  0
LINE
  5
163
330
1F
100
AcDbEntity
  8
0
  6
Continuous
 62
     7
370
    25
100
AcDbLine
 10
-0.5412918038
 20
2.2910714335
 30
0.0
 11
-0.5279103653
 21
2.3143123955
 31
0.0
  0
LINE
  5
164
330
1F
100
AcDbEntity
  8
0
  6
Continuous
 62
     7
370
    25
100
AcDbLine
 10
-0.5089861536
 20
2.3327830063
 30
0.0
 11
-0.5279103653
 21
2.3143123955
 31
0.0
  0
LINE
  5
165
330
1F
100
AcDbEntity
  8
0
  6
Continuous
 62
     7
370
    25
100
AcDbLine
 10
-0.5191117672
 20
2.3347894362
 30
0.0
 11
-0.5691483979
 21
2.3316227586
 31
0.0
  0
LINE
  5
166
330
1F
100
AcDbEntity
  8
0
  6
Continuous
 62
     7
370
    25
100
AcDbLine
 10
-0.6008947926
 20
2.2787355168
 30
0.0
 11
-0.5974810406
 21
2.272876482
 31
0.0
  0
LINE
  5
167
330
1F
100
AcDbEntity
  8
0
  6
Continuous
 62
     7
370
    25
100
AcDbLine
 10
-0.5974810406
 20
2.272876482
 30
0.0
 11
-0.5948386167
 21
2.2701698634
 31
0.0
  0
LINE
  5
168
330
1F
100
AcDbEntity
  8
0
  6
Continuous
 62
     7
370
    25
100
AcDbLine
 10
-0.5662491053
 20
2.2408858014
 30
0.0
 11
-0.5561683674
 21
2.2305601631
 31
0.0
  0
LINE
  5
169
330
1F
100
AcDbEntity
  8
0
  6
Continuous
 62
     7
370
    25
100
AcDbLine
 10
-0.6048499231
 20
2.2656811391
 30
0.0
 11
-0.5851733171
 21
2.2584219991
 31
0.0
  0
LINE
  5
16A
330
1F
100
AcDbEntity
  8
0
  6
Continuous
 62
     7
370
    25
100
AcDbLine
 10
-0.5717918786
 20
2.2613024255
 30
0.0
 11
-0.6042711881
 21
2.2737991297
 31
0.0
  0
LINE
  5
16B
330
1F
100
AcDbEntity
  8
0
  6
Continuous
 62
     7
370
    25
100
AcDbLine
 10
-0.5468345771
 20
2.3662575526
 30
0.0
 11
-0.5662491053
 21
2.3701519441
 31
0.0
  0
LINE
  5
16C
330
1F
100
AcDbEntity
  8
0
  6
Continuous
 62
     7
370
    25
100
AcDbLine
 10
-0.5412918038
 20
2.3470901288
 30
0.0
 11
-0.5662491053
 21
2.3512457671
 31
0.0
  0
LINE
  5
16D
330
1F
100
AcDbEntity
  8
0
  6
Continuous
 62
     7
370
    25
100
AcDbLine
 10
-0.5974810406
 20
2.272876482
 30
0.0
 11
-0.5468345771
 21
2.2610841763
 31
0.0
  0
LINE
  5
16E
330
1F
100
AcDbEntity
  8
0
  6
Continuous
 62
     7
370
    25
100
AcDbLine
 10
-0.5412918038
 20
2.2910714335
 30
0.0
 11
-0.5803429782
 21
2.3024695201
 31
0.0
  0
LINE
  5
16F
330
1F
100
AcDbEntity
  8
0
  6
Continuous
 62
     7
370
    25
100
AcDbLine
 10
-0.5279103653
 20
2.3143123955
 30
0.0
 11
-0.569688159
 21
2.3287025678
 31
0.0
  0
LINE
  5
170
330
1F
100
AcDbEntity
  8
0
  6
Continuous
 62
     7
370
    25
100
AcDbLine
 10
-0.5561683674
 20
2.2305601631
 30
0.0
 11
-0.5468345771
 21
2.226326568
 31
0.0
  0
LINE
  5
171
330
1F
100
AcDbEntity
  8
0
  6
Continuous
 62
     7
370
    25
100
AcDbLine
 10
-0.5089861536
 20
2.3327830063
 30
0.0
 11
-0.5191117672
 21
2.3347894362
 31
0.0
  0
LINE
  5
172
330
1F
100
AcDbEntity
  8
0
  6
Continuous
 62
     7
370
    25
100
AcDbLine
 10
-0.5279103653
 20
-2.793033249
 30
0.0
 11
-0.5089861536
 21
-2.7745626382
 31
0.0
  0
LINE
  5
173
330
1F
100
AcDbEntity
  8
0
  6
Continuous
 62
     7
370
    25
100
AcDbLine
 10
-0.5279103653
 20
-2.793033249
 30
0.0
 11
-0.5412918038
 21
-2.7959136754
 31
0.0
  0
LINE
  5
174
330
1F
100
AcDbEntity
  8
0
  6
Continuous
 62
     7
370
    25
100
AcDbLine
 10
-0.5412918038
 20
-2.7959136754
 30
0.0
 11
-0.5468345771
 21
-2.7767462516
 31
0.0
  0
LINE
  5
175
330
1F
100
AcDbEntity
  8
0
  6
Continuous
 62
     7
370
    25
100
AcDbLine
 10
-0.5468345771
 20
-2.7419886433
 30
0.0
 11
-0.5468345771
 21
-2.7767462516
 31
0.0
  0
LINE
  5
176
330
1F
100
AcDbEntity
  8
0
  6
Continuous
 62
     7
370
    25
100
AcDbLine
 10
-0.5662491053
 20
-2.7956954263
 30
0.0
 11
-0.5662491053
 21
-2.760937818
 31
0.0
  0
LINE
  5
177
330
1F
100
AcDbEntity
  8
0
  6
Continuous
 62
     7
370
    25
100
AcDbLine
 10
-0.5717918786
 20
-2.8256826835
 30
0.0
 11
-0.5662491053
 21
-2.7956954263
 31
0.0
  0
LINE
  5
178
330
1F
100
AcDbEntity
  8
0
  6
Continuous
 62
     7
370
    25
100
AcDbLine
 10
-0.5717918786
 20
-2.8256826835
 30
0.0
 11
-0.5851733171
 21
-2.8489236454
 31
0.0
  0
LINE
  5
179
330
1F
100
AcDbEntity
  8
0
  6
Continuous
 62
     7
370
    25
100
AcDbLine
 10
-0.6040975288
 20
-2.8673942562
 30
0.0
 11
-0.5851733171
 21
-2.8489236454
 31
0.0
  0
LINE
  5
17A
330
1F
100
AcDbEntity
  8
0
  6
Continuous
 62
     7
370
    25
100
AcDbLine
 10
-0.5851733171
 20
-2.8845818051
 30
0.0
 11
-0.6040975288
 21
-2.903052416
 31
0.0
  0
LINE
  5
17B
330
1F
100
AcDbEntity
  8
0
  6
Continuous
 62
     7
370
    25
100
AcDbLine
 10
-0.5851733171
 20
-2.8845818051
 30
0.0
 11
-0.5717918786
 21
-2.8817013787
 31
0.0
  0
LINE
  5
17C
330
1F
100
AcDbEntity
  8
0
  6
Continuous
 62
     7
370
    25
100
AcDbLine
 10
-0.5717918786
 20
-2.8817013787
 30
0.0
 11
-0.5662491053
 21
-2.9008688026
 31
0.0
  0
LINE
  5
17D
330
1F
100
AcDbEntity
  8
0
  6
Continuous
 62
     7
370
    25
100
AcDbLine
 10
-0.5662491053
 20
-2.9356264109
 30
0.0
 11
-0.5662491053
 21
-2.9008688026
 31
0.0
  0
LINE
  5
17E
330
1F
100
AcDbEntity
  8
0
  6
Continuous
 62
     7
370
    25
100
AcDbLine
 10
-0.5468345771
 20
-2.8819196279
 30
0.0
 11
-0.5468345771
 21
-2.9166772362
 31
0.0
  0
LINE
  5
17F
330
1F
100
AcDbEntity
  8
0
  6
Continuous
 62
     7
370
    25
100
AcDbLine
 10
-0.5468345771
 20
-2.8819196279
 30
0.0
 11
-0.5412918038
 21
-2.8519323707
 31
0.0
  0
LINE
  5
180
330
1F
100
AcDbEntity
  8
0
  6
Continuous
 62
     7
370
    25
100
AcDbLine
 10
-0.5412918038
 20
-2.8519323707
 30
0.0
 11
-0.5279103653
 21
-2.8286914087
 31
0.0
  0
LINE
  5
181
330
1F
100
AcDbEntity
  8
0
  6
Continuous
 62
     7
370
    25
100
AcDbLine
 10
-0.5089861536
 20
-2.8102207979
 30
0.0
 11
-0.5279103653
 21
-2.8286914087
 31
0.0
  0
LINE
  5
182
330
1F
100
AcDbEntity
  8
0
  6
Continuous
 62
     7
370
    25
100
AcDbLine
 10
-0.5191117672
 20
-2.808214368
 30
0.0
 11
-0.5691483979
 21
-2.8113810456
 31
0.0
  0
LINE
  5
183
330
1F
100
AcDbEntity
  8
0
  6
Continuous
 62
     7
370
    25
100
AcDbLine
 10
-0.6008947926
 20
-2.8642682874
 30
0.0
 11
-0.5974810406
 21
-2.8701273222
 31
0.0
  0
LINE
  5
184
330
1F
100
AcDbEntity
  8
0
  6
Continuous
 62
     7
370
    25
100
AcDbLine
 10
-0.5974810406
 20
-2.8701273222
 30
0.0
 11
-0.5948386167
 21
-2.8728339408
 31
0.0
  0
LINE
  5
185
330
1F
100
AcDbEntity
  8
0
  6
Continuous
 62
     7
370
    25
100
AcDbLine
 10
-0.5662491053
 20
-2.9021180029
 30
0.0
 11
-0.5561683674
 21
-2.9124436411
 31
0.0
  0
LINE
  5
186
330
1F
100
AcDbEntity
  8
0
  6
Continuous
 62
     7
370
    25
100
AcDbLine
 10
-0.6048499231
 20
-2.8773226651
 30
0.0
 11
-0.5851733171
 21
-2.8845818051
 31
0.0
  0
LINE
  5
187
330
1F
100
AcDbEntity
  8
0
  6
Continuous
 62
     7
370
    25
100
AcDbLine
 10
-0.5717918786
 20
-2.8817013787
 30
0.0
 11
-0.6042711881
 21
-2.8692046745
 31
0.0
  0
LINE
  5
188
330
1F
100
AcDbEntity
  8
0
  6
Continuous
 62
     7
370
    25
100
AcDbLine
 10
-0.5468345771
 20
-2.7767462516
 30
0.0
 11
-0.5662491053
 21
-2.7728518601
 31
0.0
  0
LINE
  5
189
330
1F
100
AcDbEntity
  8
0
  6
Continuous
 62
     7
370
    25
100
AcDbLine
 10
-0.5412918038
 20
-2.7959136754
 30
0.0
 11
-0.5662491053
 21
-2.7917580371
 31
0.0
  0
LINE
  5
18A
330
1F
100
AcDbEntity
  8
0
  6
Continuous
 62
     7
370
    25
100
AcDbLine
 10
-0.5974810406
 20
-2.8701273222
 30
0.0
 11
-0.5468345771
 21
-2.8819196279
 31
0.0
  0
LINE
  5
18B
330
1F
100
AcDbEntity
  8
0
  6
Continuous
 62
     7
370
    25
100
AcDbLine
 10
-0.5412918038
 20
-2.8519323707
 30
0.0
 11
-0.5803429782
 21
-2.8405342842
 31
0.0
  0
LINE
  5
18C
330
1F
100
AcDbEntity
  8
0
  6
Continuous
 62
     7
370
    25
100
AcDbLine
 10
-0.5279103653
 20
-2.8286914087
 30
0.0
 11
-0.569688159
 21
-2.8143012365
 31
0.0
  0
LINE
  5
18D
330
1F
100
AcDbEntity
  8
0
  6
Continuous
 62
     7
370
    25
100
AcDbLine
 10
-0.5561683674
 20
-2.9124436411
 30
0.0
 11
-0.5468345771
 21
-2.9166772362
 31
0.0
  0
LINE
  5
18E
330
1F
100
AcDbEntity
  8
0
  6
Continuous
 62
     7
370
    25
100
AcDbLine
 10
-0.5089861536
 20
-2.8102207979
 30
0.0
 11
-0.5191117672
 21
-2.808214368
 31
0.0
  0
LINE
  5
18F
330
1F
100
AcDbEntity
  8
0
  6
Continuous
 62
     8
370
    25
100
AcDbLine
 10
0.4658796049
 20
2.6190649246
 30
0.0
 11
0.5173965814
 21
2.6050637143
 31
0.0
  0
LINE
  5
190
330
1F
100
AcDbEntity
  8
0
  6
Continuous
 62
     8
370
    25
100
AcDbLine
 10
-0.3152069171
 20
2.6877796914
 30
0.0
 11
-0.272378964
 21
2.6761399714
 31
0.0
  0
LINE
  5
191
330
1F
100
AcDbEntity
  8
0
  6
Continuous
 62
     8
370
    25
100
AcDbLine
 10
-0.2695717495
 20
2.818944844
 30
0.0
 11
-0.3212528255
 21
2.832990653
 31
0.0
  0
ARC
  5
192
330
1F
100
AcDbEntity
  8
0
  6
Continuous
 62
     7
370
    25
100
AcDbCircle
 10
-3.9159566033
 20
0.6111855871
 30
0.0
 40
6.039489210538457
100
AcDbArc
 50
309.8372594292
 51
311.0589414366
  0
ARC
  5
193
330
1F
100
AcDbEntity
  8
0
  6
Continuous
 62
     7
370
    25
100
AcDbCircle
 10
164.0121831595
 20
-0.5976702637
 30
0.0
 40
164.0950114683837
100
AcDbArc
 50
178.8027511023
 51
181.1972488977
  0
ARC
  5
194
330
1F
100
AcDbEntity
  8
0
  6
Continuous
 62
     7
370
    25
100
AcDbCircle
 10
5.9784914916
 20
-2.5461882023
 30
0.0
 40
8.075935986601927
100
AcDbArc
 50
134.3728937716
 51
138.254094353
  0
ARC
  5
195
330
1F
100
AcDbEntity
  8
0
  6
Continuous
 62
     7
370
    25
100
AcDbCircle
 10
163.791078629
 20
-0.5375787901
 30
0.0
 40
164.0950114683728
100
AcDbArc
 50
178.8027511023
 51
181.1972488977
  0
ARC
  5
196
330
1F
100
AcDbEntity
  8
0
  6
Continuous
 62
     7
370
    25
100
AcDbCircle
 10
5.7573869612
 20
-2.4860967287
 30
0.0
 40
8.075935986613764
100
AcDbArc
 50
134.3728937716
 51
138.254094353
  0
ARC
  5
197
330
1F
100
AcDbEntity
  8
0
  6
Continuous
 62
     7
370
    25
100
AcDbCircle
 10
-0.0302584991
 20
-2.8002874272
 30
0.0
 40
0.2891590882521551
100
AcDbArc
 50
154.069486576
 51
178.2459714817
  0
ARC
  5
198
330
1F
100
AcDbEntity
  8
0
  6
Continuous
 62
     7
370
    25
100
AcDbCircle
 10
-4.9005377229
 20
1.1630278814
 30
0.0
 40
6.530616625723443
100
AcDbArc
 50
309.9132457353
 51
314.3849794135
  0
ARC
  5
199
330
1F
100
AcDbEntity
  8
0
  6
Continuous
 62
     7
370
    25
100
AcDbCircle
 10
163.3488695682
 20
-0.4173958427
 30
0.0
 40
164.0950114683707
100
AcDbArc
 50
178.8027511023
 51
181.1972488977
  0
ARC
  5
19A
330
1F
100
AcDbEntity
  8
0
  6
Continuous
 62
     7
370
    25
100
AcDbCircle
 10
5.3151779004
 20
-2.3659137814
 30
0.0
 40
8.075935986670062
100
AcDbArc
 50
134.3728937717
 51
138.254094353
  0
ARC
  5
19B
330
1F
100
AcDbEntity
  8
0
  6
Continuous
 62
     7
370
    25
100
AcDbCircle
 10
-0.3384326798
 20
-2.9774642001
 30
0.0
 40
0.3600436590408321
100
AcDbArc
 50
179.9802237196
 51
182.1343434632
  0
ARC
  5
19C
330
1F
100
AcDbEntity
  8
0
  6
Continuous
 62
     7
370
    25
100
AcDbCircle
 10
-0.3194082971
 20
1.9148308943
 30
0.0
 40
0.0475842063848276
100
AcDbArc
 50
220.2856223349
 51
258.6592962199
  0
ARC
  5
19D
330
1F
100
AcDbEntity
  8
0
  6
Continuous
 62
     7
370
    25
100
AcDbCircle
 10
-0.1845680744
 20
2.7799672832
 30
0.0
 40
0.492113979773325
100
AcDbArc
 50
140.4571497621
 51
178.8181492248
  0
ARC
  5
19E
330
1F
100
AcDbEntity
  8
0
  6
Continuous
 62
     7
370
    25
100
AcDbCircle
 10
-0.2981145668
 20
2.1584095513
 30
0.0
 40
0.4003617683063433
100
AcDbArc
 50
177.9760031133
 51
179.9829435404
  0
ARC
  5
19F
330
1F
100
AcDbEntity
  8
0
  6
Continuous
 62
     7
370
    25
100
AcDbCircle
 10
163.1277650378
 20
-0.357304369
 30
0.0
 40
164.0950114683839
100
AcDbArc
 50
178.8027511023
 51
181.1972488977
  0
ARC
  5
1A0
330
1F
100
AcDbEntity
  8
0
  6
Continuous
 62
     7
370
    25
100
AcDbCircle
 10
5.0940733699
 20
-2.3058223076
 30
0.0
 40
8.075935986548812
100
AcDbArc
 50
134.3728937716
 51
138.2540943531
  0
ARC
  5
1A1
330
1F
100
AcDbEntity
  8
0
  6
Continuous
 62
     7
370
    25
100
AcDbCircle
 10
0.4151274872
 20
-2.2742506169
 30
0.0
 40
0.8512481799234711
100
AcDbArc
 50
154.869123668
 51
178.8872523785
  0
ARC
  5
1A2
330
1F
100
AcDbEntity
  8
0
  6
Continuous
 62
     7
370
    25
100
AcDbCircle
 10
-0.7087028472
 20
-3.3191886398
 30
0.0
 40
0.2727475858770255
100
AcDbArc
 50
320.5129436103
 51
0.3434369839
  0
ARC
  5
1A3
330
1F
100
AcDbEntity
  8
0
  6
Continuous
 62
     7
370
    25
100
AcDbCircle
 10
-0.5075038167
 20
2.3412982742
 30
0.0
 40
0.0715053514045732
100
AcDbArc
 50
123.3697158423
 51
145.2403513961
  0
ARC
  5
1A4
330
1F
100
AcDbEntity
  8
0
  6
Continuous
 62
     7
370
    25
100
AcDbCircle
 10
-0.4430943143
 20
2.2577804681
 30
0.0
 40
0.161987379747476
100
AcDbArc
 50
173.680959196
 51
186.3190408044
  0
ARC
  5
1A5
330
1F
100
AcDbEntity
  8
0
  6
Continuous
 62
     7
370
    25
100
AcDbCircle
 10
-0.6055798657
 20
2.2670942801
 30
0.0
 40
0.0715053513975343
100
AcDbArc
 50
303.3697158407
 51
325.2403513968
  0
ARC
  5
1A6
330
1F
100
AcDbEntity
  8
0
  6
Continuous
 62
     7
370
    25
100
AcDbCircle
 10
-0.6699893681
 20
2.3506120862
 30
0.0
 40
0.1619873797211837
100
AcDbArc
 50
353.6809591946
 51
6.319040805
  0
ARC
  5
1A7
330
1F
100
AcDbEntity
  8
0
  6
Continuous
 62
     7
370
    25
100
AcDbCircle
 10
-0.6273510902
 20
2.2826673067
 30
0.0
 40
0.0882164068403547
100
AcDbArc
 50
313.8392482128
 51
323.7951434869
  0
ARC
  5
1A8
330
1F
100
AcDbEntity
  8
0
  6
Continuous
 62
     7
370
    25
100
AcDbCircle
 10
-0.6910115007
 20
2.3525479588
 30
0.0
 40
0.17281459290402
100
AcDbArc
 50
354.101842492
 51
2.2463313051
  0
ARC
  5
1A9
330
1F
100
AcDbEntity
  8
0
  6
Continuous
 62
     7
370
    25
100
AcDbCircle
 10
-0.3773081126
 20
1.8247453531
 30
0.0
 40
0.0651352173570475
100
AcDbArc
 50
289.5223335521
 51
41.818491998
  0
ARC
  5
1AA
330
1F
100
AcDbEntity
  8
0
  6
Continuous
 62
     7
370
    25
100
AcDbCircle
 10
-0.5075038167
 20
-2.8017055301
 30
0.0
 40
0.0715053514045687
100
AcDbArc
 50
123.3697158423
 51
145.2403513961
  0
ARC
  5
1AB
330
1F
100
AcDbEntity
  8
0
  6
Continuous
 62
     7
370
    25
100
AcDbCircle
 10
-0.4430943143
 20
-2.8852233361
 30
0.0
 40
0.1619873797474738
100
AcDbArc
 50
173.680959196
 51
186.3190408044
  0
ARC
  5
1AC
330
1F
100
AcDbEntity
  8
0
  6
Continuous
 62
     7
370
    25
100
AcDbCircle
 10
-0.6055798657
 20
-2.8759095241
 30
0.0
 40
0.0715053513975143
100
AcDbArc
 50
303.3697158407
 51
325.2403513968
  0
ARC
  5
1AD
330
1F
100
AcDbEntity
  8
0
  6
Continuous
 62
     7
370
    25
100
AcDbCircle
 10
-0.6699893681
 20
-2.7923917181
 30
0.0
 40
0.161987379721202
100
AcDbArc
 50
353.6809591946
 51
6.319040805
  0
ARC
  5
1AE
330
1F
100
AcDbEntity
  8
0
  6
Continuous
 62
     7
370
    25
100
AcDbCircle
 10
-0.6273510902
 20
-2.8603364975
 30
0.0
 40
0.0882164068404142
100
AcDbArc
 50
313.8392482128
 51
323.7951434869
  0
ARC
  5
1AF
330
1F
100
AcDbEntity
  8
0
  6
Continuous
 62
     7
370
    25
100
AcDbCircle
 10
-0.6910115007
 20
-2.7904558455
 30
0.0
 40
0.172814592903905
100
AcDbArc
 50
354.101842492
 51
2.2463313051
  0
ARC
  5
1B0
330
1F
100
AcDbEntity
  8
0
  6
Continuous
 62
     8
370
    25
100
AcDbCircle
 10
-0.5968095773
 20
-3.6065292508
 30
0.0
 40
0.0594539742423594
100
AcDbArc
 50
325.1849368852
 51
56.5766795495
  0
ARC
  5
1B1
330
1F
100
AcDbEntity
  8
0
  6
Continuous
 62
     8
370
    25
100
AcDbCircle
 10
-0.5309351421
 20
-3.5422394541
 30
0.0
 40
0.0594337989011147
100
AcDbArc
 50
325.1038779366
 51
56.5849145578
  0
ENDSEC
  0
SECTION
  2
OBJECTS
  0
DICTIONARY
  5
C
330
0
100
AcDbDictionary
281
     1
  3
ACAD_GROUP
350
D
  3
ACAD_LAYOUT
350
1A
  3
ACAD_MLINESTYLE
350
17
  3
ACAD_PLOTSETTINGS
350
19
  3
ACAD_PLOTSTYLENAME
350
E
  3
ACAD_SCALELIST
350
47
  0
DICTIONARY
  5
D
102
{ACAD_REACTORS
330
C
102
}
330
C
100
AcDbDictionary
281
     1
  0
DICTIONARY
  5
1A
102
{ACAD_REACTORS
330
C
102
}
330
C
100
AcDbDictionary
281
     1
  3
Layout1
350
1E
  3
Layout2
350
26
  3
Model
350
22
  0
DICTIONARY
  5
17
102
{ACAD_REACTORS
330
C
102
}
330
C
100
AcDbDictionary
281
     1
  3
Standard
350
18
  0
DICTIONARY
  5
19
102
{ACAD_REACTORS
330
C
102
}
330
C
100
AcDbDictionary
281
     1
  0
ACDBDICTIONARYWDFLT
  5
E
102
{ACAD_REACTORS
330
C
102
}
330
C
100
AcDbDictionary
281
     1
  3
Normal
350
F
100
AcDbDictionaryWithDefault
340
F
  0
DICTIONARY
  5
47
102
{ACAD_REACTORS
330
C
102
}
330
C
100
AcDbDictionary
281
     1
  3
A0
350
48
  3
A1
350
49
  3
A2
350
4A
  3
A3
350
4B
  3
A4
350
4C
  3
A5
350
4D
  3
A6
350
4E
  3
A7
350
4F
  3
A8
350
50
  3
A9
350
51
  3
B0
350
52
  3
B1
350
53
  3
B2
350
54
  3
B3
350
55
  3
B4
350
56
  3
B5
350
57
  3
B6
350
58
  3
B7
350
59
  3
B8
350
5A
  3
B9
350
5B
  3
C0
350
5C
  3
C1
350
5D
  3
C2
350
5E
  3
C3
350
5F
  3
C4
350
60
  3
C5
350
61
  3
C6
350
62
  3
C7
350
63
  3
C8
350
64
  3
C9
350
65
  3
D0
350
66
  3
D1
350
67
  3
D2
350
68
  0
LAYOUT
  5
1E
102
{ACAD_REACTORS
330
1A
102
}
330
1A
100
AcDbPlotSettings
  1

  2
none_device
  4

  6

 40
0.0
 41
0.0
 42
0.0
 43
0.0
 44
0.0
 45
0.0
 46
0.0
 47
0.0
 48
0.0
 49
0.0
140
0.0
141
0.0
142
1.0
143
1.0
 70
   688
 72
     0
 73
     0
 74
     5
  7

 75
    16
147
1.0
148
0.0
149
0.0
100
AcDbLayout
  1
Layout1
 70
     1
 71
     1
 10
0.0
 20
0.0
 11
12.0
 21
9.0
 12
0.0
 22
0.0
 32
0.0
 14
1.0000000000E+20
 24
1.0000000000E+20
 34
1.0000000000E+20
 15
-1.0000000000E+20
 25
-1.0000000000E+20
 35
-1.0000000000E+20
146
0.0
 13
0.0
 23
0.0
 33
0.0
 16
1.0
 26
0.0
 36
0.0
 17
0.0
 27
1.0
 37
0.0
 76
     0
330
1B
  0
LAYOUT
  5
26
102
{ACAD_REACTORS
330
1A
102
}
330
1A
100
AcDbPlotSettings
  1

  2
none_device
  4

  6

 40
0.0
 41
0.0
 42
0.0
 43
0.0
 44
0.0
 45
0.0
 46
0.0
 47
0.0
 48
0.0
 49
0.0
140
0.0
141
0.0
142
1.0
143
1.0
 70
   688
 72
     0
 73
     0
 74
     5
  7

 75
    16
147
1.0
148
0.0
149
0.0
100
AcDbLayout
  1
Layout2
 70
     1
 71
     2
 10
0.0
 20
0.0
 11
0.0
 21
0.0
 12
0.0
 22
0.0
 32
0.0
 14
0.0
 24
0.0
 34
0.0
 15
0.0
 25
0.0
 35
0.0
146
0.0
 13
0.0
 23
0.0
 33
0.0
 16
1.0
 26
0.0
 36
0.0
 17
0.0
 27
1.0
 37
0.0
 76
     0
330
23
  0
LAYOUT
  5
22
102
{ACAD_REACTORS
330
1A
102
}
330
1A
100
AcDbPlotSettings
  1

  2
none_device
  4
ANSI_A_(11.00_x_8.50_Inches)
  6

 40
6.35
 41
19.05
 42
6.35000508
 43
19.05000254
 44
279.4
 45
215.9
 46
133.9496940363
 47
96.8790844861
 48
0.0
 49
0.0
140
0.0
141
0.0
142
1.1230144085
143
1.0
 70
  1696
 72
     0
 73
     0
 74
     0
  7

 75
     0
147
0.5913241897
148
-39.4088153714
149
0.0
100
AcDbLayout
  1
Model
 70
     1
 71
     0
 10
0.0
 20
0.0
 11
12.0
 21
9.0
 12
0.0
 22
0.0
 32
0.0
 14
-1.4719884186
 24
-4.0263394665
 34
0.0
 15
1.429940692
 25
3.4668858529
 35
0.0
146
0.0
 13
0.0
 23
0.0
 33
0.0
 16
1.0
 26
0.0
 36
0.0
 17
0.0
 27
1.0
 37
0.0
 76
     0
330
1F
331
29
  0
MLINESTYLE
  5
18
102
{ACAD_REACTORS
330
17
102
}
330
17
100
AcDbMlineStyle
  2
Standard
 70
     0
  3

 62
   256
 51
90.0
 52
90.0
 71
     2
 49
0.5
 62
   256
  6
BYLAYER
 49
-0.5
 62
   256
  6
BYLAYER
  0
ACDBPLACEHOLDER
  5
F
102
{ACAD_REACTORS
330
E
102
}
330
E
  0
SCALE
  5
48
102
{ACAD_REACTORS
330
47
102
}
330
47
100
AcDbScale
 70
     0
300
1:1
140
1.0
141
1.0
290
     1
  0
SCALE
  5
49
102
{ACAD_REACTORS
330
47
102
}
330
47
100
AcDbScale
 70
     0
300
1:2
140
1.0
141
2.0
290
     0
  0
SCALE
  5
4A
102
{ACAD_REACTORS
330
47
102
}
330
47
100
AcDbScale
 70
     0
300
1:4
140
1.0
141
4.0
290
     0
  0
SCALE
  5
4B
102
{ACAD_REACTORS
330
47
102
}
330
47
100
AcDbScale
 70
     0
300
1:5
140
1.0
141
5.0
290
     0
  0
SCALE
  5
4C
102
{ACAD_REACTORS
330
47
102
}
330
47
100
AcDbScale
 70
     0
300
1:8
140
1.0
141
8.0
290
     0
  0
SCALE
  5
4D
102
{ACAD_REACTORS
330
47
102
}
330
47
100
AcDbScale
 70
     0
300
1:10
140
1.0
141
10.0
290
     0
  0
SCALE
  5
4E
102
{ACAD_REACTORS
330
47
102
}
330
47
100
AcDbScale
 70
     0
300
1:16
140
1.0
141
16.0
290
     0
  0
SCALE
  5
4F
102
{ACAD_REACTORS
330
47
102
}
330
47
100
AcDbScale
 70
     0
300
1:20
140
1.0
141
20.0
290
     0
  0
SCALE
  5
50
102
{ACAD_REACTORS
330
47
102
}
330
47
100
AcDbScale
 70
     0
300
1:30
140
1.0
141
30.0
290
     0
  0
SCALE
  5
51
102
{ACAD_REACTORS
330
47
102
}
330
47
100
AcDbScale
 70
     0
300
1:40
140
1.0
141
40.0
290
     0
  0
SCALE
  5
52
102
{ACAD_REACTORS
330
47
102
}
330
47
100
AcDbScale
 70
     0
300
1:50
140
1.0
141
50.0
290
     0
  0
SCALE
  5
53
102
{ACAD_REACTORS
330
47
102
}
330
47
100
AcDbScale
 70
     0
300
1:100
140
1.0
141
100.0
290
     0
  0
SCALE
  5
54
102
{ACAD_REACTORS
330
47
102
}
330
47
100
AcDbScale
 70
     0
300
2:1
140
2.0
141
1.0
290
     0
  0
SCALE
  5
55
102
{ACAD_REACTORS
330
47
102
}
330
47
100
AcDbScale
 70
     0
300
4:1
140
4.0
141
1.0
290
     0
  0
SCALE
  5
56
102
{ACAD_REACTORS
330
47
102
}
330
47
100
AcDbScale
 70
     0
300
8:1
140
8.0
141
1.0
290
     0
  0
SCALE
  5
57
102
{ACAD_REACTORS
330
47
102
}
330
47
100
AcDbScale
 70
     0
300
10:1
140
10.0
141
1.0
290
     0
  0
SCALE
  5
58
102
{ACAD_REACTORS
330
47
102
}
330
47
100
AcDbScale
 70
     0
300
100:1
140
100.0
141
1.0
290
     0
  0
SCALE
  5
59
102
{ACAD_REACTORS
330
47
102
}
330
47
100
AcDbScale
 70
     0
300
1/128" = 1'-0"
140
0.0078125
141
12.0
290
     0
  0
SCALE
  5
5A
102
{ACAD_REACTORS
330
47
102
}
330
47
100
AcDbScale
 70
     0
300
1/64" = 1'-0"
140
0.015625
141
12.0
290
     0
  0
SCALE
  5
5B
102
{ACAD_REACTORS
330
47
102
}
330
47
100
AcDbScale
 70
     0
300
1/32" = 1'-0"
140
0.03125
141
12.0
290
     0
  0
SCALE
  5
5C
102
{ACAD_REACTORS
330
47
102
}
330
47
100
AcDbScale
 70
     0
300
1/16" = 1'-0"
140
0.0625
141
12.0
290
     0
  0
SCALE
  5
5D
102
{ACAD_REACTORS
330
47
102
}
330
47
100
AcDbScale
 70
     0
300
3/32" = 1'-0"
140
0.09375
141
12.0
290
     0
  0
SCALE
  5
5E
102
{ACAD_REACTORS
330
47
102
}
330
47
100
AcDbScale
 70
     0
300
1/8" = 1'-0"
140
0.125
141
12.0
290
     0
  0
SCALE
  5
5F
102
{ACAD_REACTORS
330
47
102
}
330
47
100
AcDbScale
 70
     0
300
3/16" = 1'-0"
140
0.1875
141
12.0
290
     0
  0
SCALE
  5
60
102
{ACAD_REACTORS
330
47
102
}
330
47
100
AcDbScale
 70
     0
300
1/4" = 1'-0"
140
0.25
141
12.0
290
     0
  0
SCALE
  5
61
102
{ACAD_REACTORS
330
47
102
}
330
47
100
AcDbScale
 70
     0
300
3/8" = 1'-0"
140
0.375
141
12.0
290
     0
  0
SCALE
  5
62
102
{ACAD_REACTORS
330
47
102
}
330
47
100
AcDbScale
 70
     0
300
1/2" = 1'-0"
140
0.5
141
12.0
290
     0
  0
SCALE
  5
63
102
{ACAD_REACTORS
330
47
102
}
330
47
100
AcDbScale
 70
     0
300
3/4" = 1'-0"
140
0.75
141
12.0
290
     0
  0
SCALE
  5
64
102
{ACAD_REACTORS
330
47
102
}
330
47
100
AcDbScale
 70
     0
300
1" = 1'-0"
140
1.0
141
12.0
290
     0
  0
SCALE
  5
65
102
{ACAD_REACTORS
330
47
102
}
330
47
100
AcDbScale
 70
     0
300
1-1/2" = 1'-0"
140
1.5
141
12.0
290
     0
  0
SCALE
  5
66
102
{ACAD_REACTORS
330
47
102
}
330
47
100
AcDbScale
 70
     0
300
3" = 1'-0"
140
3.0
141
12.0
290
     0
  0
SCALE
  5
67
102
{ACAD_REACTORS
330
47
102
}
330
47
100
AcDbScale
 70
     0
300
6" = 1'-0"
140
6.0
141
12.0
290
     0
  0
SCALE
  5
68
102
{ACAD_REACTORS
330
47
102
}
330
47
100
AcDbScale
 70
     0
300
1'-0" = 1'-0"
140
12.0
141
12.0
290
     0
  0
ENDSEC
  0
EOF
